ISO-10303-21;
HEADER;
FILE_DESCRIPTION (( 'STEP AP203' ),
    '1' );
FILE_NAME ('964111.step',
    '2021-11-16T15:36:01',
    ( '' ),
    ( '' ),
    'SwSTEP 2.0',
    'SolidWorks 2019',
    '' );
FILE_SCHEMA (( 'CONFIG_CONTROL_DESIGN' ));
ENDSEC;

DATA;
#1 = EDGE_LOOP ( 'NONE', ( #185 ) ) ;
#2 = FACE_OUTER_BOUND ( 'NONE', #162, .T. ) ;
#3 = DIRECTION ( 'NONE',  ( 0.0000000000000000000, -1.000000000000000000, 0.0000000000000000000 ) ) ;
#4 = VERTEX_POINT ( 'NONE', #52 ) ;
#5 = CARTESIAN_POINT ( 'NONE',  ( 2.793185071074506053E-14, -9.820142552045206497E-16, 7.999999999999998224 ) ) ;
#6 = PERSON_AND_ORGANIZATION ( #22, #202 ) ;
#7 = ADVANCED_FACE ( 'NONE', ( #184 ), #63, .F. ) ;
#8 = AXIS2_PLACEMENT_3D ( 'NONE', #135, #31, #204 ) ;
#9 = CC_DESIGN_PERSON_AND_ORGANIZATION_ASSIGNMENT ( #126, #54, ( #132 ) ) ;
#10 = CIRCLE ( 'NONE', #100, 1.199999999999997291 ) ;
#11 = DATE_AND_TIME ( #28, #207 ) ;
#12 = EDGE_LOOP ( 'NONE', ( #221 ) ) ;
#13 = PRODUCT_DEFINITION_SHAPE ( 'NONE', 'NONE',  #222 ) ;
#14 = UNCERTAINTY_MEASURE_WITH_UNIT (LENGTH_MEASURE( 1.000000000000000082E-05 ), #143, 'distance_accuracy_value', 'NONE');
#15 = AXIS2_PLACEMENT_3D ( 'NONE', #187, #117, #32 ) ;
#16 = LOCAL_TIME ( 16, 36, 1.000000000000000000, #38 ) ;
#17 = CC_DESIGN_PERSON_AND_ORGANIZATION_ASSIGNMENT ( #77, #56, ( #125 ) ) ;
#18 = DIRECTION ( 'NONE',  ( -3.491481338843133355E-15, 1.224646799147353207E-16, -1.000000000000000000 ) ) ;
#19 = VERTEX_POINT ( 'NONE', #85 ) ;
#20 = CARTESIAN_POINT ( 'NONE',  ( -1.071463889538911568E-30, -1.249999999999997780, -3.068794547514122470E-16 ) ) ;
#21 = EDGE_LOOP ( 'NONE', ( #88 ) ) ;
#22 = PERSON ( 'UNSPECIFIED', 'UNSPECIFIED', 'UNSPECIFIED', ('UNSPECIFIED'), ('UNSPECIFIED'), ('UNSPECIFIED') ) ;
#23 = DIRECTION ( 'NONE',  ( -4.275831445896958607E-31, -1.000000000000000000, -1.224646799147353207E-16 ) ) ;
#24 = CARTESIAN_POINT ( 'NONE',  ( -6.413803915257453610E-31, 2.249659577954771104E-32, -1.836986451539392090E-16 ) ) ;
#25 = AXIS2_PLACEMENT_3D ( 'NONE', #136, #191, #211 ) ;
#26 = AXIS2_PLACEMENT_3D ( 'NONE', #5, #173, #3 ) ;
#27 = DATE_AND_TIME ( #216, #193 ) ;
#28 = CALENDAR_DATE ( 2021, 16, 11 ) ;
#29 = ORIENTED_EDGE ( 'NONE', *, *, #129, .F. ) ;
#30 = APPROVAL ( #217, 'UNSPECIFIED' ) ;
#31 = DIRECTION ( 'NONE',  ( -3.491481338843133355E-15, 1.227517819005651059E-16, -1.000000000000000000 ) ) ;
#32 = DIRECTION ( 'NONE',  ( 0.0000000000000000000, -1.000000000000000000, 0.0000000000000000000 ) ) ;
#33 = DIRECTION ( 'NONE',  ( -4.347433052424081572E-31, -1.000000000000000000, -1.227517819005651059E-16 ) ) ;
#34 = VERTEX_POINT ( 'NONE', #20 ) ;
#35 = LOCAL_TIME ( 16, 36, 1.000000000000000000, #106 ) ;
#36 = FACE_OUTER_BOUND ( 'NONE', #60, .T. ) ;
#37 = PLANE ( 'NONE',  #128 ) ;
#38 = COORDINATED_UNIVERSAL_TIME_OFFSET ( 1, 0, .AHEAD. ) ;
#39 = APPROVAL_STATUS ( 'not_yet_approved' ) ;
#40 = APPROVAL_STATUS ( 'not_yet_approved' ) ;
#41 = EDGE_LOOP ( 'NONE', ( #114 ) ) ;
#42 = CONICAL_SURFACE ( 'NONE', #170, 1.199999999999997291, 0.7853981633974450594 ) ;
#43 = CC_DESIGN_PERSON_AND_ORGANIZATION_ASSIGNMENT ( #131, #76, ( #130 ) ) ;
#44 = APPROVAL_PERSON_ORGANIZATION ( #177, #70, #174 ) ;
#45 = DIRECTION ( 'NONE',  ( 3.491481338843133355E-15, -1.224646799147353207E-16, 1.000000000000000000 ) ) ;
#46 = EDGE_CURVE ( 'NONE', #19, #19, #156, .T. ) ;
#47 = DIRECTION ( 'NONE',  ( -3.491481338843133355E-15, 1.224646799147353207E-16, -1.000000000000000000 ) ) ;
#48 = FACE_OUTER_BOUND ( 'NONE', #145, .T. ) ;
#49 = CARTESIAN_POINT ( 'NONE',  ( 1.326762908760390423E-13, 1.199999999999992628, 38.00000000000000000 ) ) ;
#50 = CLOSED_SHELL ( 'NONE', ( #144, #167, #199, #164, #7 ) ) ;
#51 = CIRCLE ( 'NONE', #15, 1.249999999999996891 ) ;
#52 = CARTESIAN_POINT ( 'NONE',  ( 1.316288464743861212E-13, 1.499999999999992450, 37.69999999999999574 ) ) ;
#53 = APPLICATION_CONTEXT ( 'configuration controlled 3d designs of mechanical parts and assemblies' ) ;
#54 = PERSON_AND_ORGANIZATION_ROLE ( 'design_owner' ) ;
#55 = CC_DESIGN_PERSON_AND_ORGANIZATION_ASSIGNMENT ( #6, #109, ( #130 ) ) ;
#56 = PERSON_AND_ORGANIZATION_ROLE ( 'classification_officer' ) ;
#57 = SHAPE_DEFINITION_REPRESENTATION ( #13, #110 ) ;
#58 = CALENDAR_DATE ( 2021, 16, 11 ) ;
#59 = CALENDAR_DATE ( 2021, 16, 11 ) ;
#60 = EDGE_LOOP ( 'NONE', ( #183 ) ) ;
#61 = CC_DESIGN_APPROVAL ( #74, ( #130 ) ) ;
#62 = ORIENTED_EDGE ( 'NONE', *, *, #108, .F. ) ;
#63 = PLANE ( 'NONE',  #65 ) ;
#64 = PLANE ( 'NONE',  #120 ) ;
#65 = AXIS2_PLACEMENT_3D ( 'NONE', #116, #45, #82 ) ;
#66 = AXIS2_PLACEMENT_3D ( 'NONE', #123, #209, #147 ) ;
#67 = APPROVAL_PERSON_ORGANIZATION ( #160, #30, #124 ) ;
#68 = DIRECTION ( 'NONE',  ( 4.275831445896958607E-31, 1.000000000000000000, 1.224646799147353207E-16 ) ) ;
#69 = FACE_BOUND ( 'NONE', #1, .T. ) ;
#70 = APPROVAL ( #39, 'UNSPECIFIED' ) ;
#71 = CARTESIAN_POINT ( 'NONE',  ( 1.326762908760390423E-13, -4.653657836759941941E-15, 38.00000000000000000 ) ) ;
#72 = FACE_OUTER_BOUND ( 'NONE', #165, .T. ) ;
#73 = CC_DESIGN_APPROVAL ( #70, ( #125 ) ) ;
#74 = APPROVAL ( #40, 'UNSPECIFIED' ) ;
#75 = DIRECTION ( 'NONE',  ( 0.0000000000000000000, 1.000000000000000000, 0.0000000000000000000 ) ) ;
#76 = PERSON_AND_ORGANIZATION_ROLE ( 'creator' ) ;
#77 = PERSON_AND_ORGANIZATION ( #22, #202 ) ;
#78 = AXIS2_PLACEMENT_3D ( 'NONE', #118, #47, #102 ) ;
#79 = MECHANICAL_CONTEXT ( 'NONE', #53, 'mechanical' ) ;
#80 = DATE_AND_TIME ( #59, #16 ) ;
#81 = EDGE_LOOP ( 'NONE', ( #62 ) ) ;
#82 = DIRECTION ( 'NONE',  ( -4.275831445896958607E-31, -1.000000000000000000, -1.224646799147353207E-16 ) ) ;
#83 = FACE_OUTER_BOUND ( 'NONE', #181, .T. ) ;
#84 = CYLINDRICAL_SURFACE ( 'NONE', #25, 1.249999999999997335 ) ;
#85 = CARTESIAN_POINT ( 'NONE',  ( 3.486004420809632636E-14, 1.499999999999993339, 9.984313483298423719 ) ) ;
#86 = EDGE_CURVE ( 'NONE', #210, #210, #10, .T. ) ;
#87 = VERTEX_POINT ( 'NONE', #150 ) ;
#88 = ORIENTED_EDGE ( 'NONE', *, *, #46, .F. ) ;
#89 = DIRECTION ( 'NONE',  ( -4.275831445896958607E-31, -1.000000000000000000, -1.224646799147353207E-16 ) ) ;
#90 = ADVANCED_FACE ( 'NONE', ( #83 ), #64, .T. ) ;
#91 = APPROVAL_DATE_TIME ( #27, #70 ) ;
#92 = AXIS2_PLACEMENT_3D ( 'NONE', #153, #151, #68 ) ;
#93 = FACE_OUTER_BOUND ( 'NONE', #21, .T. ) ;
#94 = PERSON_AND_ORGANIZATION_ROLE ( 'creator' ) ;
#95 = ADVANCED_FACE ( 'NONE', ( #171 ), #37, .F. ) ;
#96 = TOROIDAL_SURFACE ( 'NONE', #146, 9.250000000000000000, 8.000000000000000000 ) ;
#97 = AXIS2_PLACEMENT_3D ( 'NONE', #176, #214, #161 ) ;
#98 = EDGE_LOOP ( 'NONE', ( #172 ) ) ;
#99 = CARTESIAN_POINT ( 'NONE',  ( 1.326762908760390423E-13, -4.653657836759941941E-15, 38.00000000000000000 ) ) ;
#100 = AXIS2_PLACEMENT_3D ( 'NONE', #99, #115, #166 ) ;
#101 = APPROVAL_DATE_TIME ( #11, #74 ) ;
#102 = DIRECTION ( 'NONE',  ( 0.0000000000000000000, 1.000000000000000000, 0.0000000000000000000 ) ) ;
#103 = ADVANCED_FACE ( 'NONE', ( #36, #138 ), #84, .T. ) ;
#104 = FACE_OUTER_BOUND ( 'NONE', #12, .T. ) ;
#105 = DIRECTION ( 'NONE',  ( 3.491481338843133355E-15, -1.224646799147353207E-16, 1.000000000000000000 ) ) ;
#106 = COORDINATED_UNIVERSAL_TIME_OFFSET ( 1, 0, .AHEAD. ) ;
#107 = SECURITY_CLASSIFICATION_LEVEL ( 'unclassified' ) ;
#108 = EDGE_CURVE ( 'NONE', #119, #119, #148, .T. ) ;
#109 = PERSON_AND_ORGANIZATION_ROLE ( 'design_supplier' ) ;
#110 = ADVANCED_BREP_SHAPE_REPRESENTATION ( '964111', ( #122, #198, #97 ), #157 ) ;
#111 = APPROVAL_ROLE ( '' ) ;
#112 = CC_DESIGN_DATE_AND_TIME_ASSIGNMENT ( #80, #195, ( #222 ) ) ;
#113 = ORIENTED_EDGE ( 'NONE', *, *, #108, .T. ) ;
#114 = ORIENTED_EDGE ( 'NONE', *, *, #134, .F. ) ;
#115 = DIRECTION ( 'NONE',  ( -3.491481338843133355E-15, 1.224646799147353207E-16, -1.000000000000000000 ) ) ;
#116 = CARTESIAN_POINT ( 'NONE',  ( 2.793185071074506684E-14, 1.124819836996386911E-32, 8.000000000000000000 ) ) ;
#117 = DIRECTION ( 'NONE',  ( 3.491481338843133355E-15, -1.227517819005651059E-16, 1.000000000000000000 ) ) ;
#118 = CARTESIAN_POINT ( 'NONE',  ( 1.316288464743861212E-13, -4.616918432785521081E-15, 37.69999999999999574 ) ) ;
#119 = VERTEX_POINT ( 'NONE', #190 ) ;
#120 = AXIS2_PLACEMENT_3D ( 'NONE', #205, #139, #23 ) ;
#121 = DIRECTION ( 'NONE',  ( -3.491481338843133355E-15, 1.224646799147353207E-16, -1.000000000000000000 ) ) ;
#122 = MANIFOLD_SOLID_BREP ( 'Corps-Déplacer/Copier1[1]', #50 ) ;
#123 = CARTESIAN_POINT ( 'NONE',  ( -5.357319447694558717E-31, -3.714082703162470146E-33, -1.534397273757061481E-16 ) ) ;
#124 = APPROVAL_ROLE ( '' ) ;
#125 = SECURITY_CLASSIFICATION ( '', '', #107 ) ;
#126 = PERSON_AND_ORGANIZATION ( #22, #202 ) ;
#127 = APPROVAL_DATE_TIME ( #194, #30 ) ;
#128 = AXIS2_PLACEMENT_3D ( 'NONE', #24, #105, #89 ) ;
#129 = EDGE_CURVE ( 'NONE', #34, #34, #163, .T. ) ;
#130 = PRODUCT_DEFINITION_FORMATION_WITH_SPECIFIED_SOURCE ( 'ANY', '', #132, .NOT_KNOWN. ) ;
#131 = PERSON_AND_ORGANIZATION ( #22, #202 ) ;
#132 = PRODUCT ( '964111', '964111', '', ( #79 ) ) ;
#133 = EDGE_LOOP ( 'NONE', ( #29 ) ) ;
#134 = EDGE_CURVE ( 'NONE', #87, #87, #51, .T. ) ;
#135 = CARTESIAN_POINT ( 'NONE',  ( 3.486004420809632636E-14, -1.978301491901006030E-15, 9.984313483298423719 ) ) ;
#136 = CARTESIAN_POINT ( 'NONE',  ( -6.413731847436034514E-31, 0.0000000000000000000, -1.836965810494968570E-16 ) ) ;
#137 = DIRECTION ( 'NONE',  ( 4.275831445896958607E-31, 1.000000000000000000, 1.224646799147353207E-16 ) ) ;
#138 = FACE_OUTER_BOUND ( 'NONE', #41, .T. ) ;
#139 = DIRECTION ( 'NONE',  ( 3.491481338843133355E-15, -1.224646799147353207E-16, 1.000000000000000000 ) ) ;
#140 = COORDINATED_UNIVERSAL_TIME_OFFSET ( 1, 0, .AHEAD. ) ;
#141 = COORDINATED_UNIVERSAL_TIME_OFFSET ( 1, 0, .AHEAD. ) ;
#142 = APPLICATION_PROTOCOL_DEFINITION ( 'international standard', 'config_control_design', 1994, #53 ) ;
#143 =( LENGTH_UNIT ( ) NAMED_UNIT ( * ) SI_UNIT ( .MILLI., .METRE. ) );
#144 = ADVANCED_FACE ( 'NONE', ( #72, #93 ), #213, .T. ) ;
#145 = EDGE_LOOP ( 'NONE', ( #203 ) ) ;
#146 = AXIS2_PLACEMENT_3D ( 'NONE', #149, #206, #33 ) ;
#147 = DIRECTION ( 'NONE',  ( -4.285855558155653280E-31, -1.000000000000000000, -1.227517819005651059E-16 ) ) ;
#148 = CIRCLE ( 'NONE', #26, 1.249999999999996891 ) ;
#149 = CARTESIAN_POINT ( 'NONE',  ( 2.793185071074506053E-14, -1.734723475976807094E-15, 7.999999999999998224 ) ) ;
#150 = CARTESIAN_POINT ( 'NONE',  ( 2.793185071074506053E-14, -1.249999999999998002, 7.999999999999998224 ) ) ;
#151 = DIRECTION ( 'NONE',  ( -3.491481338843133355E-15, 1.224646799147353207E-16, -1.000000000000000000 ) ) ;
#152 = APPLICATION_CONTEXT ( 'configuration controlled 3d designs of mechanical parts and assemblies' ) ;
#153 = CARTESIAN_POINT ( 'NONE',  ( 0.0000000000000000000, 0.0000000000000000000, 0.0000000000000000000 ) ) ;
#154 = CALENDAR_DATE ( 2021, 16, 11 ) ;
#155 = CC_DESIGN_DATE_AND_TIME_ASSIGNMENT ( #220, #159, ( #125 ) ) ;
#156 = CIRCLE ( 'NONE', #8, 1.499999999999995337 ) ;
#157 =( GEOMETRIC_REPRESENTATION_CONTEXT ( 3 ) GLOBAL_UNCERTAINTY_ASSIGNED_CONTEXT ( ( #14 ) ) GLOBAL_UNIT_ASSIGNED_CONTEXT ( ( #143, #180, #196 ) ) REPRESENTATION_CONTEXT ( 'NONE', 'WORKASPACE' ) );
#158 = APPROVAL_PERSON_ORGANIZATION ( #192, #74, #111 ) ;
#159 = DATE_TIME_ROLE ( 'classification_date' ) ;
#160 = PERSON_AND_ORGANIZATION ( #22, #202 ) ;
#161 = DIRECTION ( 'NONE',  ( 1.000000000000000000, 0.0000000000000000000, 0.0000000000000000000 ) ) ;
#162 = EDGE_LOOP ( 'NONE', ( #113 ) ) ;
#163 = CIRCLE ( 'NONE', #66, 1.249999999999997780 ) ;
#164 = ADVANCED_FACE ( 'NONE', ( #2, #48 ), #96, .F. ) ;
#165 = EDGE_LOOP ( 'NONE', ( #223 ) ) ;
#166 = DIRECTION ( 'NONE',  ( 0.0000000000000000000, 1.000000000000000000, 0.0000000000000000000 ) ) ;
#167 = ADVANCED_FACE ( 'NONE', ( #169, #69 ), #42, .T. ) ;
#168 = CARTESIAN_POINT ( 'NONE',  ( 1.326762908760390423E-13, 8.998558695971058066E-33, 38.00000000000000000 ) ) ;
#169 = FACE_OUTER_BOUND ( 'NONE', #98, .T. ) ;
#170 = AXIS2_PLACEMENT_3D ( 'NONE', #71, #121, #75 ) ;
#171 = FACE_OUTER_BOUND ( 'NONE', #133, .T. ) ;
#172 = ORIENTED_EDGE ( 'NONE', *, *, #182, .F. ) ;
#173 = DIRECTION ( 'NONE',  ( 3.491481338843133355E-15, -1.227517819005651059E-16, 1.000000000000000000 ) ) ;
#174 = APPROVAL_ROLE ( '' ) ;
#175 = APPLICATION_PROTOCOL_DEFINITION ( 'international standard', 'config_control_design', 1994, #152 ) ;
#176 = CARTESIAN_POINT ( 'NONE',  ( 0.0000000000000000000, 0.0000000000000000000, 0.0000000000000000000 ) ) ;
#177 = PERSON_AND_ORGANIZATION ( #22, #202 ) ;
#178 = CC_DESIGN_APPROVAL ( #30, ( #222 ) ) ;
#179 = COORDINATED_UNIVERSAL_TIME_OFFSET ( 1, 0, .AHEAD. ) ;
#180 =( NAMED_UNIT ( * ) PLANE_ANGLE_UNIT ( ) SI_UNIT ( $, .RADIAN. ) );
#181 = EDGE_LOOP ( 'NONE', ( #197 ) ) ;
#182 = EDGE_CURVE ( 'NONE', #4, #4, #215, .T. ) ;
#183 = ORIENTED_EDGE ( 'NONE', *, *, #129, .T. ) ;
#184 = FACE_OUTER_BOUND ( 'NONE', #81, .T. ) ;
#185 = ORIENTED_EDGE ( 'NONE', *, *, #86, .T. ) ;
#186 = CC_DESIGN_SECURITY_CLASSIFICATION ( #125, ( #130 ) ) ;
#187 = CARTESIAN_POINT ( 'NONE',  ( 2.793185071074506053E-14, -9.820142552045206497E-16, 7.999999999999998224 ) ) ;
#188 = PLANE ( 'NONE',  #201 ) ;
#189 = CC_DESIGN_PERSON_AND_ORGANIZATION_ASSIGNMENT ( #219, #94, ( #222 ) ) ;
#190 = CARTESIAN_POINT ( 'NONE',  ( 2.793185071074506053E-14, -1.249999999999998002, 7.999999999999998224 ) ) ;
#191 = DIRECTION ( 'NONE',  ( 3.491481338843133355E-15, -1.227517819005651059E-16, 1.000000000000000000 ) ) ;
#192 = PERSON_AND_ORGANIZATION ( #22, #202 ) ;
#193 = LOCAL_TIME ( 16, 36, 1.000000000000000000, #141 ) ;
#194 = DATE_AND_TIME ( #58, #35 ) ;
#195 = DATE_TIME_ROLE ( 'creation_date' ) ;
#196 =( NAMED_UNIT ( * ) SI_UNIT ( $, .STERADIAN. ) SOLID_ANGLE_UNIT ( ) );
#197 = ORIENTED_EDGE ( 'NONE', *, *, #134, .T. ) ;
#198 = MANIFOLD_SOLID_BREP ( 'Corps-Déplacer/Copier1[2]', #200 ) ;
#199 = ADVANCED_FACE ( 'NONE', ( #104 ), #188, .F. ) ;
#200 = CLOSED_SHELL ( 'NONE', ( #90, #103, #95 ) ) ;
#201 = AXIS2_PLACEMENT_3D ( 'NONE', #168, #18, #137 ) ;
#202 = ORGANIZATION ( 'UNSPECIFIED', 'UNSPECIFIED', '' ) ;
#203 = ORIENTED_EDGE ( 'NONE', *, *, #46, .T. ) ;
#204 = DIRECTION ( 'NONE',  ( 0.0000000000000000000, 1.000000000000000000, 0.0000000000000000000 ) ) ;
#205 = CARTESIAN_POINT ( 'NONE',  ( 2.793185071074506684E-14, 1.124819836996386911E-32, 8.000000000000000000 ) ) ;
#206 = DIRECTION ( 'NONE',  ( 3.491481338843133355E-15, -1.227517819005651059E-16, 1.000000000000000000 ) ) ;
#207 = LOCAL_TIME ( 16, 36, 1.000000000000000000, #179 ) ;
#208 = DESIGN_CONTEXT ( 'detailed design', #152, 'design' ) ;
#209 = DIRECTION ( 'NONE',  ( 3.491481338843133355E-15, -1.227517819005651059E-16, 1.000000000000000000 ) ) ;
#210 = VERTEX_POINT ( 'NONE', #49 ) ;
#211 = DIRECTION ( 'NONE',  ( -4.285855558155653280E-31, -1.000000000000000000, -1.227517819005651305E-16 ) ) ;
#212 = LOCAL_TIME ( 16, 36, 1.000000000000000000, #140 ) ;
#213 = CYLINDRICAL_SURFACE ( 'NONE', #92, 1.499999999999995337 ) ;
#214 = DIRECTION ( 'NONE',  ( 0.0000000000000000000, 0.0000000000000000000, 1.000000000000000000 ) ) ;
#215 = CIRCLE ( 'NONE', #78, 1.499999999999996891 ) ;
#216 = CALENDAR_DATE ( 2021, 16, 11 ) ;
#217 = APPROVAL_STATUS ( 'not_yet_approved' ) ;
#218 = PRODUCT_RELATED_PRODUCT_CATEGORY ( 'detail', '', ( #132 ) ) ;
#219 = PERSON_AND_ORGANIZATION ( #22, #202 ) ;
#220 = DATE_AND_TIME ( #154, #212 ) ;
#221 = ORIENTED_EDGE ( 'NONE', *, *, #86, .F. ) ;
#222 = PRODUCT_DEFINITION ( 'UNKNOWN', '', #130, #208 ) ;
#223 = ORIENTED_EDGE ( 'NONE', *, *, #182, .T. ) ;
ENDSEC;
END-ISO-10303-21;
