ISO-10303-21;
HEADER;
FILE_DESCRIPTION (( 'STEP AP203' ),
    '1' );
FILE_NAME ('964110.step',
    '2021-11-16T15:44:56',
    ( '' ),
    ( '' ),
    'SwSTEP 2.0',
    'SolidWorks 2019',
    '' );
FILE_SCHEMA (( 'CONFIG_CONTROL_DESIGN' ));
ENDSEC;

DATA;
#1 = EDGE_LOOP ( 'NONE', ( #209 ) ) ;
#2 = APPROVAL_PERSON_ORGANIZATION ( #93, #124, #222 ) ;
#3 = AXIS2_PLACEMENT_3D ( 'NONE', #163, #58, #218 ) ;
#4 = CARTESIAN_POINT ( 'NONE',  ( 1.326762908760390170E-13, 8.998558695971017012E-33, 37.99999999999999289 ) ) ;
#5 = DIRECTION ( 'NONE',  ( 3.491481338843133355E-15, -1.227517819005651059E-16, 1.000000000000000000 ) ) ;
#6 = CC_DESIGN_APPROVAL ( #124, ( #201 ) ) ;
#7 = DIRECTION ( 'NONE',  ( 3.491481338843133355E-15, -1.227517819005651059E-16, 1.000000000000000000 ) ) ;
#8 = FACE_OUTER_BOUND ( 'NONE', #176, .T. ) ;
#9 = DIRECTION ( 'NONE',  ( 3.491481338843133355E-15, -1.227517819005651059E-16, 1.000000000000000000 ) ) ;
#10 = DIRECTION ( 'NONE',  ( 0.0000000000000000000, 1.000000000000000000, 0.0000000000000000000 ) ) ;
#11 = CALENDAR_DATE ( 2021, 16, 11 ) ;
#12 = CARTESIAN_POINT ( 'NONE',  ( -1.071463889538911218E-30, -1.249999999999997558, -3.068794547514121977E-16 ) ) ;
#13 = CLOSED_SHELL ( 'NONE', ( #183, #84, #32, #156, #48 ) ) ;
#14 = FACE_OUTER_BOUND ( 'NONE', #177, .T. ) ;
#15 = EDGE_LOOP ( 'NONE', ( #139 ) ) ;
#16 = DESIGN_CONTEXT ( 'detailed design', #168, 'design' ) ;
#17 = APPROVAL_ROLE ( '' ) ;
#18 = EDGE_LOOP ( 'NONE', ( #137 ) ) ;
#19 = CARTESIAN_POINT ( 'NONE',  ( -6.413731847436034514E-31, 0.0000000000000000000, -1.836965810494968570E-16 ) ) ;
#20 = CC_DESIGN_DATE_AND_TIME_ASSIGNMENT ( #31, #30, ( #201 ) ) ;
#21 = CARTESIAN_POINT ( 'NONE',  ( 1.326762908760390170E-13, 1.199999999999987521, 37.99999999999999289 ) ) ;
#22 = DIRECTION ( 'NONE',  ( -3.491481338843133355E-15, 1.224646799147353207E-16, -1.000000000000000000 ) ) ;
#23 = DIRECTION ( 'NONE',  ( -4.275831445896958607E-31, -1.000000000000000000, -1.224646799147353207E-16 ) ) ;
#24 = CC_DESIGN_PERSON_AND_ORGANIZATION_ASSIGNMENT ( #207, #81, ( #136 ) ) ;
#25 = PERSON_AND_ORGANIZATION ( #169, #214 ) ;
#26 = APPROVAL_DATE_TIME ( #114, #124 ) ;
#27 = COORDINATED_UNIVERSAL_TIME_OFFSET ( 1, 0, .AHEAD. ) ;
#28 = APPROVAL ( #104, 'UNSPECIFIED' ) ;
#29 = APPROVAL_PERSON_ORGANIZATION ( #94, #62, #63 ) ;
#30 = DATE_TIME_ROLE ( 'creation_date' ) ;
#31 = DATE_AND_TIME ( #11, #126 ) ;
#32 = ADVANCED_FACE ( 'NONE', ( #14 ), #85, .F. ) ;
#33 = EDGE_LOOP ( 'NONE', ( #175 ) ) ;
#34 = SHAPE_DEFINITION_REPRESENTATION ( #164, #154 ) ;
#35 = APPROVAL_DATE_TIME ( #83, #28 ) ;
#36 = EDGE_LOOP ( 'NONE', ( #51 ) ) ;
#37 = AXIS2_PLACEMENT_3D ( 'NONE', #112, #162, #44 ) ;
#38 = UNCERTAINTY_MEASURE_WITH_UNIT (LENGTH_MEASURE( 1.000000000000000082E-05 ), #171, 'distance_accuracy_value', 'NONE');
#39 = SECURITY_CLASSIFICATION ( '', '', #97 ) ;
#40 = FACE_OUTER_BOUND ( 'NONE', #100, .T. ) ;
#41 = CARTESIAN_POINT ( 'NONE',  ( 1.316288464743860707E-13, -4.616918432785519503E-15, 37.69999999999998153 ) ) ;
#42 = VERTEX_POINT ( 'NONE', #21 ) ;
#43 = LOCAL_TIME ( 16, 44, 56.00000000000000000, #212 ) ;
#44 = DIRECTION ( 'NONE',  ( 0.0000000000000000000, -1.000000000000000000, 0.0000000000000000000 ) ) ;
#45 = CARTESIAN_POINT ( 'NONE',  ( 0.0000000000000000000, 0.0000000000000000000, 0.0000000000000000000 ) ) ;
#46 = DIRECTION ( 'NONE',  ( 0.0000000000000000000, 0.0000000000000000000, 1.000000000000000000 ) ) ;
#47 = AXIS2_PLACEMENT_3D ( 'NONE', #110, #113, #23 ) ;
#48 = ADVANCED_FACE ( 'NONE', ( #120 ), #158, .F. ) ;
#49 = VERTEX_POINT ( 'NONE', #12 ) ;
#50 = DATE_AND_TIME ( #79, #60 ) ;
#51 = ORIENTED_EDGE ( 'NONE', *, *, #165, .F. ) ;
#52 = ORIENTED_EDGE ( 'NONE', *, *, #65, .T. ) ;
#53 = EDGE_LOOP ( 'NONE', ( #52 ) ) ;
#54 = CIRCLE ( 'NONE', #185, 1.199999999999992184 ) ;
#55 = DIRECTION ( 'NONE',  ( 4.275831445896958607E-31, 1.000000000000000000, 1.224646799147353207E-16 ) ) ;
#56 = DIRECTION ( 'NONE',  ( -4.275831445896958607E-31, -1.000000000000000000, -1.224646799147353207E-16 ) ) ;
#57 = DIRECTION ( 'NONE',  ( 0.0000000000000000000, 1.000000000000000000, 0.0000000000000000000 ) ) ;
#58 = DIRECTION ( 'NONE',  ( 3.491481338843133355E-15, -1.227517819005651059E-16, 1.000000000000000000 ) ) ;
#59 = PLANE ( 'NONE',  #128 ) ;
#60 = LOCAL_TIME ( 16, 44, 56.00000000000000000, #131 ) ;
#61 = FACE_OUTER_BOUND ( 'NONE', #223, .T. ) ;
#62 = APPROVAL ( #135, 'UNSPECIFIED' ) ;
#63 = APPROVAL_ROLE ( '' ) ;
#64 =( GEOMETRIC_REPRESENTATION_CONTEXT ( 3 ) GLOBAL_UNCERTAINTY_ASSIGNED_CONTEXT ( ( #38 ) ) GLOBAL_UNIT_ASSIGNED_CONTEXT ( ( #171, #82, #204 ) ) REPRESENTATION_CONTEXT ( 'NONE', 'WORKASPACE' ) );
#65 = EDGE_CURVE ( 'NONE', #142, #142, #153, .T. ) ;
#66 = CIRCLE ( 'NONE', #192, 1.499999999999990230 ) ;
#67 = PRODUCT_RELATED_PRODUCT_CATEGORY ( 'detail', '', ( #181 ) ) ;
#68 = CIRCLE ( 'NONE', #191, 1.249999999999997558 ) ;
#69 = ORIENTED_EDGE ( 'NONE', *, *, #111, .F. ) ;
#70 = DIRECTION ( 'NONE',  ( -3.491481338843133355E-15, 1.224646799147353207E-16, -1.000000000000000000 ) ) ;
#71 = DIRECTION ( 'NONE',  ( -4.285855558155652404E-31, -1.000000000000000000, -1.227517819005650812E-16 ) ) ;
#72 = DIRECTION ( 'NONE',  ( 0.0000000000000000000, 1.000000000000000000, 0.0000000000000000000 ) ) ;
#73 = AXIS2_PLACEMENT_3D ( 'NONE', #41, #127, #72 ) ;
#74 = DIRECTION ( 'NONE',  ( 4.275831445896958607E-31, 1.000000000000000000, 1.224646799147353207E-16 ) ) ;
#75 = DIRECTION ( 'NONE',  ( -3.491481338843133355E-15, 1.227517819005651059E-16, -1.000000000000000000 ) ) ;
#76 = FACE_OUTER_BOUND ( 'NONE', #1, .T. ) ;
#77 = PERSON_AND_ORGANIZATION ( #169, #214 ) ;
#78 = CC_DESIGN_PERSON_AND_ORGANIZATION_ASSIGNMENT ( #117, #95, ( #39 ) ) ;
#79 = CALENDAR_DATE ( 2021, 16, 11 ) ;
#80 = AXIS2_PLACEMENT_3D ( 'NONE', #45, #184, #74 ) ;
#81 = PERSON_AND_ORGANIZATION_ROLE ( 'design_supplier' ) ;
#82 =( NAMED_UNIT ( * ) PLANE_ANGLE_UNIT ( ) SI_UNIT ( $, .RADIAN. ) );
#83 = DATE_AND_TIME ( #138, #43 ) ;
#84 = ADVANCED_FACE ( 'NONE', ( #167, #89 ), #103, .T. ) ;
#85 = PLANE ( 'NONE',  #143 ) ;
#86 = CARTESIAN_POINT ( 'NONE',  ( -2.137917073001454058E-30, 7.498803648657679327E-32, -6.123237862442165323E-16 ) ) ;
#87 = CARTESIAN_POINT ( 'NONE',  ( 2.793185071074506684E-14, -1.249999999999996447, 8.000000000000000000 ) ) ;
#88 = CC_DESIGN_APPROVAL ( #62, ( #136 ) ) ;
#89 = FACE_BOUND ( 'NONE', #15, .T. ) ;
#90 = CLOSED_SHELL ( 'NONE', ( #121, #198, #159 ) ) ;
#91 = MANIFOLD_SOLID_BREP ( 'Corps-Déplacer/Copier1[2]', #90 ) ;
#92 = DIRECTION ( 'NONE',  ( -4.347433052424081572E-31, -1.000000000000000000, -1.227517819005651059E-16 ) ) ;
#93 = PERSON_AND_ORGANIZATION ( #169, #214 ) ;
#94 = PERSON_AND_ORGANIZATION ( #169, #214 ) ;
#95 = PERSON_AND_ORGANIZATION_ROLE ( 'classification_officer' ) ;
#96 = AXIS2_PLACEMENT_3D ( 'NONE', #188, #46, #203 ) ;
#97 = SECURITY_CLASSIFICATION_LEVEL ( 'unclassified' ) ;
#98 = EDGE_CURVE ( 'NONE', #109, #109, #205, .T. ) ;
#99 = MECHANICAL_CONTEXT ( 'NONE', #101, 'mechanical' ) ;
#100 = EDGE_LOOP ( 'NONE', ( #211 ) ) ;
#101 = APPLICATION_CONTEXT ( 'configuration controlled 3d designs of mechanical parts and assemblies' ) ;
#102 = EDGE_CURVE ( 'NONE', #125, #125, #66, .T. ) ;
#103 = CONICAL_SURFACE ( 'NONE', #133, 1.199999999999992184, 0.7853981633974338461 ) ;
#104 = APPROVAL_STATUS ( 'not_yet_approved' ) ;
#105 = EDGE_LOOP ( 'NONE', ( #119 ) ) ;
#106 = LOCAL_TIME ( 16, 44, 56.00000000000000000, #27 ) ;
#107 = CC_DESIGN_DATE_AND_TIME_ASSIGNMENT ( #200, #186, ( #39 ) ) ;
#108 = CARTESIAN_POINT ( 'NONE',  ( 3.486004420809632636E-14, -1.978301491901006030E-15, 9.984313483298423719 ) ) ;
#109 = VERTEX_POINT ( 'NONE', #87 ) ;
#110 = CARTESIAN_POINT ( 'NONE',  ( 2.793185071074506684E-14, 1.124819836996382532E-32, 8.000000000000000000 ) ) ;
#111 = EDGE_CURVE ( 'NONE', #42, #42, #54, .T. ) ;
#112 = CARTESIAN_POINT ( 'NONE',  ( 2.793185071074506684E-14, -9.820142552045208469E-16, 8.000000000000000000 ) ) ;
#113 = DIRECTION ( 'NONE',  ( 3.491481338843133355E-15, -1.224646799147353207E-16, 1.000000000000000000 ) ) ;
#114 = DATE_AND_TIME ( #115, #106 ) ;
#115 = CALENDAR_DATE ( 2021, 16, 11 ) ;
#116 = CC_DESIGN_APPROVAL ( #28, ( #39 ) ) ;
#117 = PERSON_AND_ORGANIZATION ( #169, #214 ) ;
#118 = CC_DESIGN_PERSON_AND_ORGANIZATION_ASSIGNMENT ( #77, #149, ( #201 ) ) ;
#119 = ORIENTED_EDGE ( 'NONE', *, *, #165, .T. ) ;
#120 = FACE_OUTER_BOUND ( 'NONE', #18, .T. ) ;
#121 = ADVANCED_FACE ( 'NONE', ( #123 ), #59, .T. ) ;
#122 = FACE_OUTER_BOUND ( 'NONE', #33, .T. ) ;
#123 = FACE_OUTER_BOUND ( 'NONE', #105, .T. ) ;
#124 = APPROVAL ( #170, 'UNSPECIFIED' ) ;
#125 = VERTEX_POINT ( 'NONE', #196 ) ;
#126 = LOCAL_TIME ( 16, 44, 56.00000000000000000, #189 ) ;
#127 = DIRECTION ( 'NONE',  ( -3.491481338843133355E-15, 1.224646799147353207E-16, -1.000000000000000000 ) ) ;
#128 = AXIS2_PLACEMENT_3D ( 'NONE', #144, #197, #216 ) ;
#129 = DIRECTION ( 'NONE',  ( 3.491481338843133355E-15, -1.224646799147353207E-16, 1.000000000000000000 ) ) ;
#130 = CALENDAR_DATE ( 2021, 16, 11 ) ;
#131 = COORDINATED_UNIVERSAL_TIME_OFFSET ( 1, 0, .AHEAD. ) ;
#132 = VERTEX_POINT ( 'NONE', #134 ) ;
#133 = AXIS2_PLACEMENT_3D ( 'NONE', #199, #182, #146 ) ;
#134 = CARTESIAN_POINT ( 'NONE',  ( 2.793185071074506684E-14, -1.249999999999996447, 8.000000000000000000 ) ) ;
#135 = APPROVAL_STATUS ( 'not_yet_approved' ) ;
#136 = PRODUCT_DEFINITION_FORMATION_WITH_SPECIFIED_SOURCE ( 'ANY', '', #181, .NOT_KNOWN. ) ;
#137 = ORIENTED_EDGE ( 'NONE', *, *, #98, .F. ) ;
#138 = CALENDAR_DATE ( 2021, 16, 11 ) ;
#139 = ORIENTED_EDGE ( 'NONE', *, *, #111, .T. ) ;
#140 = TOROIDAL_SURFACE ( 'NONE', #193, 9.249999999999994671, 8.000000000000000000 ) ;
#141 = ORIENTED_EDGE ( 'NONE', *, *, #98, .T. ) ;
#142 = VERTEX_POINT ( 'NONE', #195 ) ;
#143 = AXIS2_PLACEMENT_3D ( 'NONE', #4, #70, #55 ) ;
#144 = CARTESIAN_POINT ( 'NONE',  ( 2.793185071074506684E-14, 1.124819836996382532E-32, 8.000000000000000000 ) ) ;
#145 = CYLINDRICAL_SURFACE ( 'NONE', #210, 1.249999999999996447 ) ;
#146 = DIRECTION ( 'NONE',  ( 0.0000000000000000000, 1.000000000000000000, 0.0000000000000000000 ) ) ;
#147 = PLANE ( 'NONE',  #160 ) ;
#148 = EDGE_CURVE ( 'NONE', #49, #49, #68, .T. ) ;
#149 = PERSON_AND_ORGANIZATION_ROLE ( 'creator' ) ;
#150 = APPROVAL_DATE_TIME ( #50, #62 ) ;
#151 = CC_DESIGN_PERSON_AND_ORGANIZATION_ASSIGNMENT ( #221, #190, ( #136 ) ) ;
#152 = COORDINATED_UNIVERSAL_TIME_OFFSET ( 1, 0, .AHEAD. ) ;
#153 = CIRCLE ( 'NONE', #73, 1.499999999999992006 ) ;
#154 = ADVANCED_BREP_SHAPE_REPRESENTATION ( '964110', ( #172, #91, #96 ), #64 ) ;
#155 = ORIENTED_EDGE ( 'NONE', *, *, #65, .F. ) ;
#156 = ADVANCED_FACE ( 'NONE', ( #61, #8 ), #140, .F. ) ;
#157 = ORIENTED_EDGE ( 'NONE', *, *, #102, .T. ) ;
#158 = PLANE ( 'NONE',  #47 ) ;
#159 = ADVANCED_FACE ( 'NONE', ( #76 ), #147, .F. ) ;
#160 = AXIS2_PLACEMENT_3D ( 'NONE', #86, #129, #56 ) ;
#161 = DIRECTION ( 'NONE',  ( -4.285855558155652404E-31, -1.000000000000000000, -1.227517819005651305E-16 ) ) ;
#162 = DIRECTION ( 'NONE',  ( 3.491481338843133355E-15, -1.227517819005651059E-16, 1.000000000000000000 ) ) ;
#163 = CARTESIAN_POINT ( 'NONE',  ( 2.793185071074506684E-14, -9.820142552045208469E-16, 8.000000000000000000 ) ) ;
#164 = PRODUCT_DEFINITION_SHAPE ( 'NONE', 'NONE',  #201 ) ;
#165 = EDGE_CURVE ( 'NONE', #132, #132, #202, .T. ) ;
#166 = APPROVAL_PERSON_ORGANIZATION ( #173, #28, #17 ) ;
#167 = FACE_OUTER_BOUND ( 'NONE', #213, .T. ) ;
#168 = APPLICATION_CONTEXT ( 'configuration controlled 3d designs of mechanical parts and assemblies' ) ;
#169 = PERSON ( 'UNSPECIFIED', 'UNSPECIFIED', 'UNSPECIFIED', ('UNSPECIFIED'), ('UNSPECIFIED'), ('UNSPECIFIED') ) ;
#170 = APPROVAL_STATUS ( 'not_yet_approved' ) ;
#171 =( LENGTH_UNIT ( ) NAMED_UNIT ( * ) SI_UNIT ( .MILLI., .METRE. ) );
#172 = MANIFOLD_SOLID_BREP ( 'Corps-Déplacer/Copier1[1]', #13 ) ;
#173 = PERSON_AND_ORGANIZATION ( #169, #214 ) ;
#174 = CC_DESIGN_SECURITY_CLASSIFICATION ( #39, ( #136 ) ) ;
#175 = ORIENTED_EDGE ( 'NONE', *, *, #102, .F. ) ;
#176 = EDGE_LOOP ( 'NONE', ( #157 ) ) ;
#177 = EDGE_LOOP ( 'NONE', ( #69 ) ) ;
#178 = FACE_OUTER_BOUND ( 'NONE', #36, .T. ) ;
#179 = CARTESIAN_POINT ( 'NONE',  ( -5.357319447694556965E-31, -3.714082703162476304E-33, -1.534397273757060988E-16 ) ) ;
#180 = CARTESIAN_POINT ( 'NONE',  ( 1.326762908760390170E-13, -4.653657836759941152E-15, 37.99999999999999289 ) ) ;
#181 = PRODUCT ( '964110', '964110', '', ( #99 ) ) ;
#182 = DIRECTION ( 'NONE',  ( -3.491481338843133355E-15, 1.224646799147353207E-16, -1.000000000000000000 ) ) ;
#183 = ADVANCED_FACE ( 'NONE', ( #217, #122 ), #194, .T. ) ;
#184 = DIRECTION ( 'NONE',  ( -3.491481338843133355E-15, 1.224646799147353207E-16, -1.000000000000000000 ) ) ;
#185 = AXIS2_PLACEMENT_3D ( 'NONE', #180, #22, #57 ) ;
#186 = DATE_TIME_ROLE ( 'classification_date' ) ;
#187 = APPLICATION_PROTOCOL_DEFINITION ( 'international standard', 'config_control_design', 1994, #168 ) ;
#188 = CARTESIAN_POINT ( 'NONE',  ( 0.0000000000000000000, 0.0000000000000000000, 0.0000000000000000000 ) ) ;
#189 = COORDINATED_UNIVERSAL_TIME_OFFSET ( 1, 0, .AHEAD. ) ;
#190 = PERSON_AND_ORGANIZATION_ROLE ( 'creator' ) ;
#191 = AXIS2_PLACEMENT_3D ( 'NONE', #179, #7, #161 ) ;
#192 = AXIS2_PLACEMENT_3D ( 'NONE', #108, #75, #10 ) ;
#193 = AXIS2_PLACEMENT_3D ( 'NONE', #215, #9, #92 ) ;
#194 = CYLINDRICAL_SURFACE ( 'NONE', #80, 1.499999999999990230 ) ;
#195 = CARTESIAN_POINT ( 'NONE',  ( 1.316288464743860707E-13, 1.499999999999987566, 37.69999999999998153 ) ) ;
#196 = CARTESIAN_POINT ( 'NONE',  ( 3.486004420809632636E-14, 1.499999999999988232, 9.984313483298423719 ) ) ;
#197 = DIRECTION ( 'NONE',  ( 3.491481338843133355E-15, -1.224646799147353207E-16, 1.000000000000000000 ) ) ;
#198 = ADVANCED_FACE ( 'NONE', ( #40, #178 ), #145, .T. ) ;
#199 = CARTESIAN_POINT ( 'NONE',  ( 1.326762908760390170E-13, -4.653657836759941152E-15, 37.99999999999999289 ) ) ;
#200 = DATE_AND_TIME ( #130, #220 ) ;
#201 = PRODUCT_DEFINITION ( 'UNKNOWN', '', #136, #16 ) ;
#202 = CIRCLE ( 'NONE', #3, 1.249999999999995337 ) ;
#203 = DIRECTION ( 'NONE',  ( 1.000000000000000000, 0.0000000000000000000, 0.0000000000000000000 ) ) ;
#204 =( NAMED_UNIT ( * ) SI_UNIT ( $, .STERADIAN. ) SOLID_ANGLE_UNIT ( ) );
#205 = CIRCLE ( 'NONE', #37, 1.249999999999995337 ) ;
#206 = APPLICATION_PROTOCOL_DEFINITION ( 'international standard', 'config_control_design', 1994, #101 ) ;
#207 = PERSON_AND_ORGANIZATION ( #169, #214 ) ;
#208 = CC_DESIGN_PERSON_AND_ORGANIZATION_ASSIGNMENT ( #25, #219, ( #181 ) ) ;
#209 = ORIENTED_EDGE ( 'NONE', *, *, #148, .F. ) ;
#210 = AXIS2_PLACEMENT_3D ( 'NONE', #19, #5, #71 ) ;
#211 = ORIENTED_EDGE ( 'NONE', *, *, #148, .T. ) ;
#212 = COORDINATED_UNIVERSAL_TIME_OFFSET ( 1, 0, .AHEAD. ) ;
#213 = EDGE_LOOP ( 'NONE', ( #155 ) ) ;
#214 = ORGANIZATION ( 'UNSPECIFIED', 'UNSPECIFIED', '' ) ;
#215 = CARTESIAN_POINT ( 'NONE',  ( 2.793185071074506053E-14, -1.734723475976807094E-15, 7.999999999999998224 ) ) ;
#216 = DIRECTION ( 'NONE',  ( -4.275831445896958607E-31, -1.000000000000000000, -1.224646799147353207E-16 ) ) ;
#217 = FACE_OUTER_BOUND ( 'NONE', #53, .T. ) ;
#218 = DIRECTION ( 'NONE',  ( 0.0000000000000000000, -1.000000000000000000, 0.0000000000000000000 ) ) ;
#219 = PERSON_AND_ORGANIZATION_ROLE ( 'design_owner' ) ;
#220 = LOCAL_TIME ( 16, 44, 56.00000000000000000, #152 ) ;
#221 = PERSON_AND_ORGANIZATION ( #169, #214 ) ;
#222 = APPROVAL_ROLE ( '' ) ;
#223 = EDGE_LOOP ( 'NONE', ( #141 ) ) ;
ENDSEC;
END-ISO-10303-21;
