ISO-10303-21;
HEADER;
FILE_DESCRIPTION (( 'STEP AP203' ),
    '1' );
FILE_NAME ('964109.step',
    '2021-11-16T14:59:01',
    ( '' ),
    ( '' ),
    'SwSTEP 2.0',
    'SolidWorks 2019',
    '' );
FILE_SCHEMA (( 'CONFIG_CONTROL_DESIGN' ));
ENDSEC;

DATA;
#1 = FACE_OUTER_BOUND ( 'NONE', #146, .T. ) ;
#2 = CC_DESIGN_DATE_AND_TIME_ASSIGNMENT ( #14, #78, ( #68 ) ) ;
#3 = CLOSED_SHELL ( 'NONE', ( #6, #52, #176 ) ) ;
#4 = MANIFOLD_SOLID_BREP ( 'Corps-Déplacer/Copier1[1]', #97 ) ;
#5 = CC_DESIGN_APPROVAL ( #200, ( #89 ) ) ;
#6 = ADVANCED_FACE ( 'NONE', ( #17 ), #186, .T. ) ;
#7 = ORGANIZATION ( 'UNSPECIFIED', 'UNSPECIFIED', '' ) ;
#8 = SECURITY_CLASSIFICATION_LEVEL ( 'unclassified' ) ;
#9 = DIRECTION ( 'NONE',  ( 4.275831445896958607E-31, 1.000000000000000000, 1.224646799147353207E-16 ) ) ;
#10 = PERSON_AND_ORGANIZATION ( #74, #7 ) ;
#11 = PLANE ( 'NONE',  #135 ) ;
#12 = LOCAL_TIME ( 15, 59, 1.000000000000000000, #116 ) ;
#13 = EDGE_LOOP ( 'NONE', ( #77 ) ) ;
#14 = DATE_AND_TIME ( #96, #44 ) ;
#15 = FACE_OUTER_BOUND ( 'NONE', #166, .T. ) ;
#16 = APPROVAL_DATE_TIME ( #31, #40 ) ;
#17 = FACE_OUTER_BOUND ( 'NONE', #29, .T. ) ;
#18 = UNCERTAINTY_MEASURE_WITH_UNIT (LENGTH_MEASURE( 1.000000000000000082E-05 ), #179, 'distance_accuracy_value', 'NONE');
#19 = CIRCLE ( 'NONE', #153, 1.249999999999998890 ) ;
#20 = AXIS2_PLACEMENT_3D ( 'NONE', #25, #190, #58 ) ;
#21 = VERTEX_POINT ( 'NONE', #210 ) ;
#22 = CC_DESIGN_SECURITY_CLASSIFICATION ( #89, ( #34 ) ) ;
#23 = ORIENTED_EDGE ( 'NONE', *, *, #57, .T. ) ;
#24 = CARTESIAN_POINT ( 'NONE',  ( 2.793185071074506053E-14, -1.249999999999999778, 7.999999999999998224 ) ) ;
#25 = CARTESIAN_POINT ( 'NONE',  ( -6.413731847436034514E-31, 0.0000000000000000000, -1.836965810494968570E-16 ) ) ;
#26 = CALENDAR_DATE ( 2021, 16, 11 ) ;
#27 = FACE_OUTER_BOUND ( 'NONE', #70, .T. ) ;
#28 = EDGE_CURVE ( 'NONE', #211, #211, #163, .T. ) ;
#29 = EDGE_LOOP ( 'NONE', ( #121 ) ) ;
#30 = CARTESIAN_POINT ( 'NONE',  ( 2.793185071074506053E-14, -9.820142552045206497E-16, 7.999999999999998224 ) ) ;
#31 = DATE_AND_TIME ( #73, #12 ) ;
#32 = CARTESIAN_POINT ( 'NONE',  ( 1.326762908760390423E-13, 8.998558695971030697E-33, 38.00000000000000000 ) ) ;
#33 = CALENDAR_DATE ( 2021, 16, 11 ) ;
#34 = PRODUCT_DEFINITION_FORMATION_WITH_SPECIFIED_SOURCE ( 'ANY', '', #80, .NOT_KNOWN. ) ;
#35 = VERTEX_POINT ( 'NONE', #145 ) ;
#36 = CARTESIAN_POINT ( 'NONE',  ( 1.326762908760390423E-13, -4.653657836759941941E-15, 38.00000000000000000 ) ) ;
#37 = APPROVAL_STATUS ( 'not_yet_approved' ) ;
#38 = CYLINDRICAL_SURFACE ( 'NONE', #20, 1.249999999999998890 ) ;
#39 = DATE_AND_TIME ( #199, #118 ) ;
#40 = APPROVAL ( #188, 'UNSPECIFIED' ) ;
#41 = DIRECTION ( 'NONE',  ( 0.0000000000000000000, 1.000000000000000000, 0.0000000000000000000 ) ) ;
#42 = MECHANICAL_CONTEXT ( 'NONE', #142, 'mechanical' ) ;
#43 = DIRECTION ( 'NONE',  ( -3.491481338843133355E-15, 1.227517819005651059E-16, -1.000000000000000000 ) ) ;
#44 = LOCAL_TIME ( 15, 59, 1.000000000000000000, #132 ) ;
#45 = APPROVAL_DATE_TIME ( #219, #141 ) ;
#46 = DIRECTION ( 'NONE',  ( 3.491481338843133355E-15, -1.227517819005651059E-16, 1.000000000000000000 ) ) ;
#47 = PERSON_AND_ORGANIZATION_ROLE ( 'creator' ) ;
#48 = CARTESIAN_POINT ( 'NONE',  ( -1.070210875506570662E-30, 1.507686439610748761E-32, -3.065205772691238754E-16 ) ) ;
#49 = CC_DESIGN_DATE_AND_TIME_ASSIGNMENT ( #91, #169, ( #89 ) ) ;
#50 = DESIGN_CONTEXT ( 'detailed design', #189, 'design' ) ;
#51 = LOCAL_TIME ( 15, 59, 1.000000000000000000, #156 ) ;
#52 = ADVANCED_FACE ( 'NONE', ( #115, #223 ), #38, .T. ) ;
#53 = EDGE_LOOP ( 'NONE', ( #23 ) ) ;
#54 = VERTEX_POINT ( 'NONE', #196 ) ;
#55 = FACE_OUTER_BOUND ( 'NONE', #187, .T. ) ;
#56 = PERSON_AND_ORGANIZATION ( #74, #7 ) ;
#57 = EDGE_CURVE ( 'NONE', #147, #147, #114, .T. ) ;
#58 = DIRECTION ( 'NONE',  ( -4.285855558155653280E-31, -1.000000000000000000, -1.227517819005651305E-16 ) ) ;
#59 = CONICAL_SURFACE ( 'NONE', #218, 1.199999999999993738, 0.7853981633974453924 ) ;
#60 = DIRECTION ( 'NONE',  ( 3.491481338843133355E-15, -1.224646799147353207E-16, 1.000000000000000000 ) ) ;
#61 = PERSON_AND_ORGANIZATION_ROLE ( 'creator' ) ;
#62 = PERSON_AND_ORGANIZATION ( #74, #7 ) ;
#63 = DIRECTION ( 'NONE',  ( 0.0000000000000000000, -1.000000000000000000, 0.0000000000000000000 ) ) ;
#64 = PERSON_AND_ORGANIZATION ( #74, #7 ) ;
#65 = FACE_OUTER_BOUND ( 'NONE', #53, .T. ) ;
#66 = SHAPE_DEFINITION_REPRESENTATION ( #181, #92 ) ;
#67 = EDGE_LOOP ( 'NONE', ( #170 ) ) ;
#68 = PRODUCT_DEFINITION ( 'UNKNOWN', '', #34, #50 ) ;
#69 = AXIS2_PLACEMENT_3D ( 'NONE', #154, #173, #63 ) ;
#70 = EDGE_LOOP ( 'NONE', ( #95 ) ) ;
#71 = ADVANCED_FACE ( 'NONE', ( #15, #98 ), #59, .T. ) ;
#72 = FACE_OUTER_BOUND ( 'NONE', #13, .T. ) ;
#73 = CALENDAR_DATE ( 2021, 16, 11 ) ;
#74 = PERSON ( 'UNSPECIFIED', 'UNSPECIFIED', 'UNSPECIFIED', ('UNSPECIFIED'), ('UNSPECIFIED'), ('UNSPECIFIED') ) ;
#75 = CYLINDRICAL_SURFACE ( 'NONE', #105, 1.499999999999992006 ) ;
#76 = DIRECTION ( 'NONE',  ( 0.0000000000000000000, 0.0000000000000000000, 1.000000000000000000 ) ) ;
#77 = ORIENTED_EDGE ( 'NONE', *, *, #220, .F. ) ;
#78 = DATE_TIME_ROLE ( 'creation_date' ) ;
#79 = PERSON_AND_ORGANIZATION ( #74, #7 ) ;
#80 = PRODUCT ( '964109', '964109', '', ( #42 ) ) ;
#81 = DIRECTION ( 'NONE',  ( -4.347433052424081572E-31, -1.000000000000000000, -1.227517819005651059E-16 ) ) ;
#82 = EDGE_CURVE ( 'NONE', #54, #54, #103, .T. ) ;
#83 = AXIS2_PLACEMENT_3D ( 'NONE', #30, #46, #133 ) ;
#84 = EDGE_LOOP ( 'NONE', ( #209 ) ) ;
#85 = ADVANCED_FACE ( 'NONE', ( #182 ), #11, .F. ) ;
#86 =( NAMED_UNIT ( * ) SI_UNIT ( $, .STERADIAN. ) SOLID_ANGLE_UNIT ( ) );
#87 = ORIENTED_EDGE ( 'NONE', *, *, #28, .T. ) ;
#88 = PRODUCT_RELATED_PRODUCT_CATEGORY ( 'detail', '', ( #80 ) ) ;
#89 = SECURITY_CLASSIFICATION ( '', '', #8 ) ;
#90 = CARTESIAN_POINT ( 'NONE',  ( 1.326762908760390423E-13, -4.653657836759941941E-15, 38.00000000000000000 ) ) ;
#91 = DATE_AND_TIME ( #26, #164 ) ;
#92 = ADVANCED_BREP_SHAPE_REPRESENTATION ( '964109', ( #4, #162, #104 ), #111 ) ;
#93 = EDGE_LOOP ( 'NONE', ( #194 ) ) ;
#94 = APPROVAL_PERSON_ORGANIZATION ( #62, #40, #205 ) ;
#95 = ORIENTED_EDGE ( 'NONE', *, *, #119, .T. ) ;
#96 = CALENDAR_DATE ( 2021, 16, 11 ) ;
#97 = CLOSED_SHELL ( 'NONE', ( #130, #71, #85, #193, #207 ) ) ;
#98 = FACE_BOUND ( 'NONE', #93, .T. ) ;
#99 = CARTESIAN_POINT ( 'NONE',  ( 1.316288464743861212E-13, -4.616918432785521081E-15, 37.69999999999999574 ) ) ;
#100 = PERSON_AND_ORGANIZATION_ROLE ( 'design_supplier' ) ;
#101 = EDGE_CURVE ( 'NONE', #165, #165, #143, .T. ) ;
#102 = CARTESIAN_POINT ( 'NONE',  ( 2.793185071074506053E-14, -1.734723475976807094E-15, 7.999999999999998224 ) ) ;
#103 = CIRCLE ( 'NONE', #69, 1.249999999999998668 ) ;
#104 = AXIS2_PLACEMENT_3D ( 'NONE', #134, #76, #113 ) ;
#105 = AXIS2_PLACEMENT_3D ( 'NONE', #217, #127, #9 ) ;
#106 = CC_DESIGN_PERSON_AND_ORGANIZATION_ASSIGNMENT ( #159, #100, ( #34 ) ) ;
#107 = EDGE_LOOP ( 'NONE', ( #87 ) ) ;
#108 = COORDINATED_UNIVERSAL_TIME_OFFSET ( 1, 0, .AHEAD. ) ;
#109 = DIRECTION ( 'NONE',  ( 0.0000000000000000000, 1.000000000000000000, 0.0000000000000000000 ) ) ;
#110 = APPROVAL_DATE_TIME ( #39, #200 ) ;
#111 =( GEOMETRIC_REPRESENTATION_CONTEXT ( 3 ) GLOBAL_UNCERTAINTY_ASSIGNED_CONTEXT ( ( #18 ) ) GLOBAL_UNIT_ASSIGNED_CONTEXT ( ( #179, #122, #86 ) ) REPRESENTATION_CONTEXT ( 'NONE', 'WORKASPACE' ) );
#112 = ORIENTED_EDGE ( 'NONE', *, *, #220, .T. ) ;
#113 = DIRECTION ( 'NONE',  ( 1.000000000000000000, 0.0000000000000000000, 0.0000000000000000000 ) ) ;
#114 = CIRCLE ( 'NONE', #178, 1.499999999999992006 ) ;
#115 = FACE_OUTER_BOUND ( 'NONE', #151, .T. ) ;
#116 = COORDINATED_UNIVERSAL_TIME_OFFSET ( 1, 0, .AHEAD. ) ;
#117 = FACE_OUTER_BOUND ( 'NONE', #107, .T. ) ;
#118 = LOCAL_TIME ( 15, 59, 1.000000000000000000, #129 ) ;
#119 = EDGE_CURVE ( 'NONE', #35, #35, #208, .T. ) ;
#120 = AXIS2_PLACEMENT_3D ( 'NONE', #99, #174, #168 ) ;
#121 = ORIENTED_EDGE ( 'NONE', *, *, #82, .T. ) ;
#122 =( NAMED_UNIT ( * ) PLANE_ANGLE_UNIT ( ) SI_UNIT ( $, .RADIAN. ) );
#123 = AXIS2_PLACEMENT_3D ( 'NONE', #221, #214, #149 ) ;
#124 = DIRECTION ( 'NONE',  ( 3.491481338843133355E-15, -1.227517819005651059E-16, 1.000000000000000000 ) ) ;
#125 = CC_DESIGN_PERSON_AND_ORGANIZATION_ASSIGNMENT ( #79, #47, ( #34 ) ) ;
#126 = CARTESIAN_POINT ( 'NONE',  ( 1.326762908760390423E-13, 1.199999999999989297, 38.00000000000000000 ) ) ;
#127 = DIRECTION ( 'NONE',  ( -3.491481338843133355E-15, 1.224646799147353207E-16, -1.000000000000000000 ) ) ;
#128 = CARTESIAN_POINT ( 'NONE',  ( -1.282754905350004587E-30, 4.499298539707956128E-32, -3.673956068672651857E-16 ) ) ;
#129 = COORDINATED_UNIVERSAL_TIME_OFFSET ( 1, 0, .AHEAD. ) ;
#130 = ADVANCED_FACE ( 'NONE', ( #27, #55 ), #75, .T. ) ;
#131 = DIRECTION ( 'NONE',  ( -4.275831445896958607E-31, -1.000000000000000000, -1.224646799147353207E-16 ) ) ;
#132 = COORDINATED_UNIVERSAL_TIME_OFFSET ( 1, 0, .AHEAD. ) ;
#133 = DIRECTION ( 'NONE',  ( 0.0000000000000000000, -1.000000000000000000, 0.0000000000000000000 ) ) ;
#134 = CARTESIAN_POINT ( 'NONE',  ( 0.0000000000000000000, 0.0000000000000000000, 0.0000000000000000000 ) ) ;
#135 = AXIS2_PLACEMENT_3D ( 'NONE', #32, #184, #158 ) ;
#136 = AXIS2_PLACEMENT_3D ( 'NONE', #90, #137, #204 ) ;
#137 = DIRECTION ( 'NONE',  ( -3.491481338843133355E-15, 1.224646799147353207E-16, -1.000000000000000000 ) ) ;
#138 = APPROVAL_ROLE ( '' ) ;
#139 = CARTESIAN_POINT ( 'NONE',  ( 2.793185071074506684E-14, 1.124819836996384448E-32, 8.000000000000000000 ) ) ;
#140 = CC_DESIGN_APPROVAL ( #40, ( #34 ) ) ;
#141 = APPROVAL ( #37, 'UNSPECIFIED' ) ;
#142 = APPLICATION_CONTEXT ( 'configuration controlled 3d designs of mechanical parts and assemblies' ) ;
#143 = CIRCLE ( 'NONE', #136, 1.199999999999993738 ) ;
#144 = AXIS2_PLACEMENT_3D ( 'NONE', #139, #206, #192 ) ;
#145 = CARTESIAN_POINT ( 'NONE',  ( 1.316288464743861212E-13, 1.499999999999989120, 37.69999999999999574 ) ) ;
#146 = EDGE_LOOP ( 'NONE', ( #155 ) ) ;
#147 = VERTEX_POINT ( 'NONE', #167 ) ;
#148 = DIRECTION ( 'NONE',  ( -4.285855558155654155E-31, -1.000000000000000000, -1.227517819005651552E-16 ) ) ;
#149 = DIRECTION ( 'NONE',  ( -4.275831445896958607E-31, -1.000000000000000000, -1.224646799147353207E-16 ) ) ;
#150 = PERSON_AND_ORGANIZATION_ROLE ( 'design_owner' ) ;
#151 = EDGE_LOOP ( 'NONE', ( #112 ) ) ;
#152 = APPROVAL_STATUS ( 'not_yet_approved' ) ;
#153 = AXIS2_PLACEMENT_3D ( 'NONE', #48, #124, #148 ) ;
#154 = CARTESIAN_POINT ( 'NONE',  ( 2.793185071074506053E-14, -9.820142552045206497E-16, 7.999999999999998224 ) ) ;
#155 = ORIENTED_EDGE ( 'NONE', *, *, #28, .F. ) ;
#156 = COORDINATED_UNIVERSAL_TIME_OFFSET ( 1, 0, .AHEAD. ) ;
#157 = CC_DESIGN_PERSON_AND_ORGANIZATION_ASSIGNMENT ( #185, #61, ( #68 ) ) ;
#158 = DIRECTION ( 'NONE',  ( 4.275831445896958607E-31, 1.000000000000000000, 1.224646799147353207E-16 ) ) ;
#159 = PERSON_AND_ORGANIZATION ( #74, #7 ) ;
#160 = PLANE ( 'NONE',  #144 ) ;
#161 = CC_DESIGN_PERSON_AND_ORGANIZATION_ASSIGNMENT ( #64, #150, ( #80 ) ) ;
#162 = MANIFOLD_SOLID_BREP ( 'Corps-Déplacer/Copier1[2]', #3 ) ;
#163 = CIRCLE ( 'NONE', #83, 1.249999999999998668 ) ;
#164 = LOCAL_TIME ( 15, 59, 1.000000000000000000, #108 ) ;
#165 = VERTEX_POINT ( 'NONE', #126 ) ;
#166 = EDGE_LOOP ( 'NONE', ( #195 ) ) ;
#167 = CARTESIAN_POINT ( 'NONE',  ( 3.486004420809627588E-14, 1.499999999999990008, 9.984313483298409508 ) ) ;
#168 = DIRECTION ( 'NONE',  ( 0.0000000000000000000, 1.000000000000000000, 0.0000000000000000000 ) ) ;
#169 = DATE_TIME_ROLE ( 'classification_date' ) ;
#170 = ORIENTED_EDGE ( 'NONE', *, *, #101, .F. ) ;
#171 = PERSON_AND_ORGANIZATION ( #74, #7 ) ;
#172 = AXIS2_PLACEMENT_3D ( 'NONE', #102, #175, #81 ) ;
#173 = DIRECTION ( 'NONE',  ( 3.491481338843133355E-15, -1.227517819005651059E-16, 1.000000000000000000 ) ) ;
#174 = DIRECTION ( 'NONE',  ( -3.491481338843133355E-15, 1.224646799147353207E-16, -1.000000000000000000 ) ) ;
#175 = DIRECTION ( 'NONE',  ( 3.491481338843133355E-15, -1.227517819005651059E-16, 1.000000000000000000 ) ) ;
#176 = ADVANCED_FACE ( 'NONE', ( #72 ), #198, .F. ) ;
#177 = APPROVAL_PERSON_ORGANIZATION ( #10, #200, #215 ) ;
#178 = AXIS2_PLACEMENT_3D ( 'NONE', #202, #43, #41 ) ;
#179 =( LENGTH_UNIT ( ) NAMED_UNIT ( * ) SI_UNIT ( .MILLI., .METRE. ) );
#180 = APPROVAL_PERSON_ORGANIZATION ( #171, #141, #138 ) ;
#181 = PRODUCT_DEFINITION_SHAPE ( 'NONE', 'NONE',  #68 ) ;
#182 = FACE_OUTER_BOUND ( 'NONE', #67, .T. ) ;
#183 = PERSON_AND_ORGANIZATION_ROLE ( 'classification_officer' ) ;
#184 = DIRECTION ( 'NONE',  ( -3.491481338843133355E-15, 1.224646799147353207E-16, -1.000000000000000000 ) ) ;
#185 = PERSON_AND_ORGANIZATION ( #74, #7 ) ;
#186 = PLANE ( 'NONE',  #123 ) ;
#187 = EDGE_LOOP ( 'NONE', ( #201 ) ) ;
#188 = APPROVAL_STATUS ( 'not_yet_approved' ) ;
#189 = APPLICATION_CONTEXT ( 'configuration controlled 3d designs of mechanical parts and assemblies' ) ;
#190 = DIRECTION ( 'NONE',  ( 3.491481338843133355E-15, -1.227517819005651059E-16, 1.000000000000000000 ) ) ;
#191 = CC_DESIGN_PERSON_AND_ORGANIZATION_ASSIGNMENT ( #56, #183, ( #89 ) ) ;
#192 = DIRECTION ( 'NONE',  ( -4.275831445896958607E-31, -1.000000000000000000, -1.224646799147353207E-16 ) ) ;
#193 = ADVANCED_FACE ( 'NONE', ( #117, #65 ), #212, .F. ) ;
#194 = ORIENTED_EDGE ( 'NONE', *, *, #101, .T. ) ;
#195 = ORIENTED_EDGE ( 'NONE', *, *, #119, .F. ) ;
#196 = CARTESIAN_POINT ( 'NONE',  ( 2.793185071074506053E-14, -1.249999999999999778, 7.999999999999998224 ) ) ;
#197 = APPLICATION_PROTOCOL_DEFINITION ( 'international standard', 'config_control_design', 1994, #189 ) ;
#198 = PLANE ( 'NONE',  #203 ) ;
#199 = CALENDAR_DATE ( 2021, 16, 11 ) ;
#200 = APPROVAL ( #152, 'UNSPECIFIED' ) ;
#201 = ORIENTED_EDGE ( 'NONE', *, *, #57, .F. ) ;
#202 = CARTESIAN_POINT ( 'NONE',  ( 3.486004420809627588E-14, -1.978301491901004452E-15, 9.984313483298409508 ) ) ;
#203 = AXIS2_PLACEMENT_3D ( 'NONE', #128, #60, #131 ) ;
#204 = DIRECTION ( 'NONE',  ( 0.0000000000000000000, 1.000000000000000000, 0.0000000000000000000 ) ) ;
#205 = APPROVAL_ROLE ( '' ) ;
#206 = DIRECTION ( 'NONE',  ( 3.491481338843133355E-15, -1.224646799147353207E-16, 1.000000000000000000 ) ) ;
#207 = ADVANCED_FACE ( 'NONE', ( #1 ), #160, .F. ) ;
#208 = CIRCLE ( 'NONE', #120, 1.499999999999993783 ) ;
#209 = ORIENTED_EDGE ( 'NONE', *, *, #82, .F. ) ;
#210 = CARTESIAN_POINT ( 'NONE',  ( -1.605942820276026971E-30, -1.249999999999998890, -4.599603046448301961E-16 ) ) ;
#211 = VERTEX_POINT ( 'NONE', #24 ) ;
#212 = TOROIDAL_SURFACE ( 'NONE', #172, 9.250000000000000000, 8.000000000000000000 ) ;
#213 = DIRECTION ( 'NONE',  ( -3.491481338843133355E-15, 1.224646799147353207E-16, -1.000000000000000000 ) ) ;
#214 = DIRECTION ( 'NONE',  ( 3.491481338843133355E-15, -1.224646799147353207E-16, 1.000000000000000000 ) ) ;
#215 = APPROVAL_ROLE ( '' ) ;
#216 = CC_DESIGN_APPROVAL ( #141, ( #68 ) ) ;
#217 = CARTESIAN_POINT ( 'NONE',  ( 0.0000000000000000000, 0.0000000000000000000, 0.0000000000000000000 ) ) ;
#218 = AXIS2_PLACEMENT_3D ( 'NONE', #36, #213, #109 ) ;
#219 = DATE_AND_TIME ( #33, #51 ) ;
#220 = EDGE_CURVE ( 'NONE', #21, #21, #19, .T. ) ;
#221 = CARTESIAN_POINT ( 'NONE',  ( 2.793185071074506684E-14, 1.124819836996384448E-32, 8.000000000000000000 ) ) ;
#222 = APPLICATION_PROTOCOL_DEFINITION ( 'international standard', 'config_control_design', 1994, #142 ) ;
#223 = FACE_OUTER_BOUND ( 'NONE', #84, .T. ) ;
ENDSEC;
END-ISO-10303-21;
