ISO-10303-21;
HEADER;
FILE_DESCRIPTION (( 'STEP AP203' ),
    '1' );
FILE_NAME ('964108.step',
    '2021-11-16T14:59:01',
    ( '' ),
    ( '' ),
    'SwSTEP 2.0',
    'SolidWorks 2019',
    '' );
FILE_SCHEMA (( 'CONFIG_CONTROL_DESIGN' ));
ENDSEC;

DATA;
#1 = FACE_OUTER_BOUND ( 'NONE', #71, .T. ) ;
#2 = PERSON_AND_ORGANIZATION ( #196, #105 ) ;
#3 = DIRECTION ( 'NONE',  ( 3.491481338843133355E-15, -1.224646799147353207E-16, 1.000000000000000000 ) ) ;
#4 = PERSON_AND_ORGANIZATION ( #196, #105 ) ;
#5 = SECURITY_CLASSIFICATION_LEVEL ( 'unclassified' ) ;
#6 = LOCAL_TIME ( 15, 59, 1.000000000000000000, #208 ) ;
#7 = EDGE_LOOP ( 'NONE', ( #156 ) ) ;
#8 = APPROVAL ( #175, 'UNSPECIFIED' ) ;
#9 = FACE_OUTER_BOUND ( 'NONE', #28, .T. ) ;
#10 = DIRECTION ( 'NONE',  ( -4.348338603810381847E-31, -1.000000000000000000, -1.227517819005651059E-16 ) ) ;
#11 = APPROVAL_ROLE ( '' ) ;
#12 = CC_DESIGN_APPROVAL ( #154, ( #59 ) ) ;
#13 = DIRECTION ( 'NONE',  ( -4.275831445896958607E-31, -1.000000000000000000, -1.224646799147353207E-16 ) ) ;
#14 = PERSON_AND_ORGANIZATION ( #196, #105 ) ;
#15 = FACE_OUTER_BOUND ( 'NONE', #73, .T. ) ;
#16 = EDGE_CURVE ( 'NONE', #118, #118, #103, .T. ) ;
#17 = DATE_AND_TIME ( #151, #168 ) ;
#18 = CARTESIAN_POINT ( 'NONE',  ( 1.326762908760390423E-13, 1.199999999999989297, 38.00000000000000000 ) ) ;
#19 = AXIS2_PLACEMENT_3D ( 'NONE', #29, #169, #92 ) ;
#20 = CALENDAR_DATE ( 2021, 16, 11 ) ;
#21 = APPLICATION_CONTEXT ( 'configuration controlled 3d designs of mechanical parts and assemblies' ) ;
#22 = CARTESIAN_POINT ( 'NONE',  ( -8.571711116311285540E-31, -0.9999999999999974465, -2.455035638011295708E-16 ) ) ;
#23 = APPROVAL_PERSON_ORGANIZATION ( #2, #8, #11 ) ;
#24 = ADVANCED_FACE ( 'NONE', ( #112 ), #171, .F. ) ;
#25 = PRODUCT_DEFINITION_SHAPE ( 'NONE', 'NONE',  #83 ) ;
#26 = EDGE_LOOP ( 'NONE', ( #184 ) ) ;
#27 = ADVANCED_FACE ( 'NONE', ( #209, #1 ), #167, .F. ) ;
#28 = EDGE_LOOP ( 'NONE', ( #74 ) ) ;
#29 = CARTESIAN_POINT ( 'NONE',  ( 1.326762908760390423E-13, -4.653657836759941941E-15, 38.00000000000000000 ) ) ;
#30 = APPROVAL ( #84, 'UNSPECIFIED' ) ;
#31 = LOCAL_TIME ( 15, 59, 1.000000000000000000, #133 ) ;
#32 = ORIENTED_EDGE ( 'NONE', *, *, #95, .F. ) ;
#33 = DATE_TIME_ROLE ( 'creation_date' ) ;
#34 = VERTEX_POINT ( 'NONE', #41 ) ;
#35 = PERSON_AND_ORGANIZATION_ROLE ( 'creator' ) ;
#36 = AXIS2_PLACEMENT_3D ( 'NONE', #127, #199, #37 ) ;
#37 = DIRECTION ( 'NONE',  ( 0.0000000000000000000, -1.000000000000000000, 0.0000000000000000000 ) ) ;
#38 = DATE_TIME_ROLE ( 'classification_date' ) ;
#39 = CARTESIAN_POINT ( 'NONE',  ( 0.0000000000000000000, 0.0000000000000000000, 0.0000000000000000000 ) ) ;
#40 = APPLICATION_PROTOCOL_DEFINITION ( 'international standard', 'config_control_design', 1994, #21 ) ;
#41 = CARTESIAN_POINT ( 'NONE',  ( 3.765172339669341197E-14, 1.499999999999989786, 10.78388218141498811 ) ) ;
#42 = CALENDAR_DATE ( 2021, 16, 11 ) ;
#43 = AXIS2_PLACEMENT_3D ( 'NONE', #134, #114, #158 ) ;
#44 = CIRCLE ( 'NONE', #36, 0.9999999999999967804 ) ;
#45 = VERTEX_POINT ( 'NONE', #107 ) ;
#46 = SHAPE_DEFINITION_REPRESENTATION ( #25, #212 ) ;
#47 = ORIENTED_EDGE ( 'NONE', *, *, #157, .T. ) ;
#48 = AXIS2_PLACEMENT_3D ( 'NONE', #159, #172, #174 ) ;
#49 = AXIS2_PLACEMENT_3D ( 'NONE', #75, #177, #165 ) ;
#50 = ORIENTED_EDGE ( 'NONE', *, *, #173, .T. ) ;
#51 = CIRCLE ( 'NONE', #206, 0.9999999999999967804 ) ;
#52 = DIRECTION ( 'NONE',  ( -3.491481338843133355E-15, 1.227517819005651059E-16, -1.000000000000000000 ) ) ;
#53 = DIRECTION ( 'NONE',  ( 1.000000000000000000, 0.0000000000000000000, 0.0000000000000000000 ) ) ;
#54 = DIRECTION ( 'NONE',  ( -4.275831445896958607E-31, -1.000000000000000000, -1.224646799147353207E-16 ) ) ;
#55 = COORDINATED_UNIVERSAL_TIME_OFFSET ( 1, 0, .AHEAD. ) ;
#56 = ADVANCED_FACE ( 'NONE', ( #160, #97 ), #211, .T. ) ;
#57 = FACE_OUTER_BOUND ( 'NONE', #140, .T. ) ;
#58 = PERSON_AND_ORGANIZATION ( #196, #105 ) ;
#59 = SECURITY_CLASSIFICATION ( '', '', #5 ) ;
#60 = CARTESIAN_POINT ( 'NONE',  ( 2.793185071074506053E-14, -1.734723475976807094E-15, 7.999999999999998224 ) ) ;
#61 = PERSON_AND_ORGANIZATION ( #196, #105 ) ;
#62 = ADVANCED_FACE ( 'NONE', ( #147 ), #221, .F. ) ;
#63 = CARTESIAN_POINT ( 'NONE',  ( 3.765172339669341197E-14, -2.076449974346729347E-15, 10.78388218141498811 ) ) ;
#64 = PERSON_AND_ORGANIZATION ( #196, #105 ) ;
#65 = AXIS2_PLACEMENT_3D ( 'NONE', #119, #129, #207 ) ;
#66 = CC_DESIGN_APPROVAL ( #8, ( #69 ) ) ;
#67 = UNCERTAINTY_MEASURE_WITH_UNIT (LENGTH_MEASURE( 1.000000000000000082E-05 ), #146, 'distance_accuracy_value', 'NONE');
#68 = CLOSED_SHELL ( 'NONE', ( #88, #200, #141 ) ) ;
#69 = PRODUCT_DEFINITION_FORMATION_WITH_SPECIFIED_SOURCE ( 'ANY', '', #136, .NOT_KNOWN. ) ;
#70 = ORIENTED_EDGE ( 'NONE', *, *, #111, .T. ) ;
#71 = EDGE_LOOP ( 'NONE', ( #70 ) ) ;
#72 = EDGE_LOOP ( 'NONE', ( #143 ) ) ;
#73 = EDGE_LOOP ( 'NONE', ( #125 ) ) ;
#74 = ORIENTED_EDGE ( 'NONE', *, *, #205, .F. ) ;
#75 = CARTESIAN_POINT ( 'NONE',  ( 1.326762908760390423E-13, -4.653657836759941941E-15, 38.00000000000000000 ) ) ;
#76 = CIRCLE ( 'NONE', #153, 1.499999999999993783 ) ;
#77 = DIRECTION ( 'NONE',  ( -3.491481338843133355E-15, 1.224646799147353207E-16, -1.000000000000000000 ) ) ;
#78 = CARTESIAN_POINT ( 'NONE',  ( 1.316288464743861212E-13, -4.616918432785521081E-15, 37.69999999999999574 ) ) ;
#79 = COORDINATED_UNIVERSAL_TIME_OFFSET ( 1, 0, .AHEAD. ) ;
#80 = CYLINDRICAL_SURFACE ( 'NONE', #87, 0.9999999999999970024 ) ;
#81 = APPROVAL_ROLE ( '' ) ;
#82 = CIRCLE ( 'NONE', #124, 1.499999999999992006 ) ;
#83 = PRODUCT_DEFINITION ( 'UNKNOWN', '', #69, #179 ) ;
#84 = APPROVAL_STATUS ( 'not_yet_approved' ) ;
#85 = VERTEX_POINT ( 'NONE', #86 ) ;
#86 = CARTESIAN_POINT ( 'NONE',  ( 2.793185071074506684E-14, -0.9999999999999978906, 8.000000000000000000 ) ) ;
#87 = AXIS2_PLACEMENT_3D ( 'NONE', #150, #113, #149 ) ;
#88 = ADVANCED_FACE ( 'NONE', ( #57 ), #145, .T. ) ;
#89 =( GEOMETRIC_REPRESENTATION_CONTEXT ( 3 ) GLOBAL_UNCERTAINTY_ASSIGNED_CONTEXT ( ( #67 ) ) GLOBAL_UNIT_ASSIGNED_CONTEXT ( ( #146, #162, #93 ) ) REPRESENTATION_CONTEXT ( 'NONE', 'WORKASPACE' ) );
#90 = EDGE_LOOP ( 'NONE', ( #32 ) ) ;
#91 = ORIENTED_EDGE ( 'NONE', *, *, #16, .T. ) ;
#92 = DIRECTION ( 'NONE',  ( 0.0000000000000000000, 1.000000000000000000, 0.0000000000000000000 ) ) ;
#93 =( NAMED_UNIT ( * ) SI_UNIT ( $, .STERADIAN. ) SOLID_ANGLE_UNIT ( ) );
#94 = DIRECTION ( 'NONE',  ( 4.275831445896958607E-31, 1.000000000000000000, 1.224646799147353207E-16 ) ) ;
#95 = EDGE_CURVE ( 'NONE', #193, #193, #44, .T. ) ;
#96 = CLOSED_SHELL ( 'NONE', ( #191, #56, #62, #27, #24 ) ) ;
#97 = FACE_BOUND ( 'NONE', #183, .T. ) ;
#98 = DATE_AND_TIME ( #20, #155 ) ;
#99 = DIRECTION ( 'NONE',  ( 0.0000000000000000000, 1.000000000000000000, 0.0000000000000000000 ) ) ;
#100 = FACE_OUTER_BOUND ( 'NONE', #215, .T. ) ;
#101 = CARTESIAN_POINT ( 'NONE',  ( 0.0000000000000000000, 0.0000000000000000000, 0.0000000000000000000 ) ) ;
#102 = DIRECTION ( 'NONE',  ( 0.0000000000000000000, -1.000000000000000000, 0.0000000000000000000 ) ) ;
#103 = CIRCLE ( 'NONE', #19, 1.199999999999993738 ) ;
#104 = DIRECTION ( 'NONE',  ( 0.0000000000000000000, 0.0000000000000000000, 1.000000000000000000 ) ) ;
#105 = ORGANIZATION ( 'UNSPECIFIED', 'UNSPECIFIED', '' ) ;
#106 = PERSON_AND_ORGANIZATION_ROLE ( 'design_supplier' ) ;
#107 = CARTESIAN_POINT ( 'NONE',  ( 1.316288464743861212E-13, 1.499999999999989120, 37.69999999999999574 ) ) ;
#108 = APPROVAL_DATE_TIME ( #120, #154 ) ;
#109 = APPROVAL_PERSON_ORGANIZATION ( #58, #154, #81 ) ;
#110 = ORIENTED_EDGE ( 'NONE', *, *, #16, .F. ) ;
#111 = EDGE_CURVE ( 'NONE', #34, #34, #82, .T. ) ;
#112 = FACE_OUTER_BOUND ( 'NONE', #90, .T. ) ;
#113 = DIRECTION ( 'NONE',  ( 3.491481338843133355E-15, -1.227517819005651059E-16, 1.000000000000000000 ) ) ;
#114 = DIRECTION ( 'NONE',  ( 3.491481338843133355E-15, -1.227517819005651059E-16, 1.000000000000000000 ) ) ;
#115 = PERSON_AND_ORGANIZATION_ROLE ( 'design_owner' ) ;
#116 = DIRECTION ( 'NONE',  ( 0.0000000000000000000, 1.000000000000000000, 0.0000000000000000000 ) ) ;
#117 = APPROVAL_STATUS ( 'not_yet_approved' ) ;
#118 = VERTEX_POINT ( 'NONE', #18 ) ;
#119 = CARTESIAN_POINT ( 'NONE',  ( 1.326762908760390423E-13, 8.998558695971030697E-33, 38.00000000000000000 ) ) ;
#120 = DATE_AND_TIME ( #42, #31 ) ;
#121 = AXIS2_PLACEMENT_3D ( 'NONE', #39, #77, #94 ) ;
#122 = CC_DESIGN_PERSON_AND_ORGANIZATION_ASSIGNMENT ( #4, #115, ( #136 ) ) ;
#123 = APPLICATION_CONTEXT ( 'configuration controlled 3d designs of mechanical parts and assemblies' ) ;
#124 = AXIS2_PLACEMENT_3D ( 'NONE', #63, #52, #99 ) ;
#125 = ORIENTED_EDGE ( 'NONE', *, *, #205, .T. ) ;
#126 = CARTESIAN_POINT ( 'NONE',  ( -1.282754905350004587E-30, 4.499298539707956128E-32, -3.673956068672651857E-16 ) ) ;
#127 = CARTESIAN_POINT ( 'NONE',  ( 2.793185071074506684E-14, -9.820142552045208469E-16, 8.000000000000000000 ) ) ;
#128 = APPROVAL_DATE_TIME ( #135, #8 ) ;
#129 = DIRECTION ( 'NONE',  ( -3.491481338843133355E-15, 1.224646799147353207E-16, -1.000000000000000000 ) ) ;
#130 = APPROVAL_DATE_TIME ( #98, #30 ) ;
#131 = CC_DESIGN_PERSON_AND_ORGANIZATION_ASSIGNMENT ( #161, #35, ( #69 ) ) ;
#132 = PLANE ( 'NONE',  #217 ) ;
#133 = COORDINATED_UNIVERSAL_TIME_OFFSET ( 1, 0, .AHEAD. ) ;
#134 = CARTESIAN_POINT ( 'NONE',  ( -4.285855558155642770E-31, -7.481082693103454872E-33, -1.227517819005647854E-16 ) ) ;
#135 = DATE_AND_TIME ( #210, #6 ) ;
#136 = PRODUCT ( '964108', '964108', '', ( #189 ) ) ;
#137 = AXIS2_PLACEMENT_3D ( 'NONE', #60, #203, #10 ) ;
#138 = CC_DESIGN_APPROVAL ( #30, ( #83 ) ) ;
#139 = EDGE_LOOP ( 'NONE', ( #47 ) ) ;
#140 = EDGE_LOOP ( 'NONE', ( #50 ) ) ;
#141 = ADVANCED_FACE ( 'NONE', ( #9 ), #132, .F. ) ;
#142 = CIRCLE ( 'NONE', #43, 0.9999999999999974465 ) ;
#143 = ORIENTED_EDGE ( 'NONE', *, *, #111, .F. ) ;
#144 = PRODUCT_RELATED_PRODUCT_CATEGORY ( 'detail', '', ( #136 ) ) ;
#145 = PLANE ( 'NONE',  #48 ) ;
#146 =( LENGTH_UNIT ( ) NAMED_UNIT ( * ) SI_UNIT ( .MILLI., .METRE. ) );
#147 = FACE_OUTER_BOUND ( 'NONE', #182, .T. ) ;
#148 = PERSON_AND_ORGANIZATION ( #196, #105 ) ;
#149 = DIRECTION ( 'NONE',  ( -4.285855558155653280E-31, -1.000000000000000000, -1.227517819005651059E-16 ) ) ;
#150 = CARTESIAN_POINT ( 'NONE',  ( -6.413731847436034514E-31, 0.0000000000000000000, -1.836965810494968570E-16 ) ) ;
#151 = CALENDAR_DATE ( 2021, 16, 11 ) ;
#152 = CC_DESIGN_SECURITY_CLASSIFICATION ( #59, ( #69 ) ) ;
#153 = AXIS2_PLACEMENT_3D ( 'NONE', #78, #190, #116 ) ;
#154 = APPROVAL ( #117, 'UNSPECIFIED' ) ;
#155 = LOCAL_TIME ( 15, 59, 1.000000000000000000, #164 ) ;
#156 = ORIENTED_EDGE ( 'NONE', *, *, #157, .F. ) ;
#157 = EDGE_CURVE ( 'NONE', #45, #45, #76, .T. ) ;
#158 = DIRECTION ( 'NONE',  ( -4.285855558155653280E-31, -1.000000000000000000, -1.227517819005651059E-16 ) ) ;
#159 = CARTESIAN_POINT ( 'NONE',  ( 2.793185071074506684E-14, 1.124819836996384448E-32, 8.000000000000000000 ) ) ;
#160 = FACE_OUTER_BOUND ( 'NONE', #7, .T. ) ;
#161 = PERSON_AND_ORGANIZATION ( #196, #105 ) ;
#162 =( NAMED_UNIT ( * ) PLANE_ANGLE_UNIT ( ) SI_UNIT ( $, .RADIAN. ) );
#163 = DIRECTION ( 'NONE',  ( 3.491481338843133355E-15, -1.227517819005651059E-16, 1.000000000000000000 ) ) ;
#164 = COORDINATED_UNIVERSAL_TIME_OFFSET ( 1, 0, .AHEAD. ) ;
#165 = DIRECTION ( 'NONE',  ( 0.0000000000000000000, 1.000000000000000000, 0.0000000000000000000 ) ) ;
#166 = CALENDAR_DATE ( 2021, 16, 11 ) ;
#167 = TOROIDAL_SURFACE ( 'NONE', #137, 9.000000000000000000, 8.000000000000000000 ) ;
#168 = LOCAL_TIME ( 15, 59, 1.000000000000000000, #55 ) ;
#169 = DIRECTION ( 'NONE',  ( -3.491481338843133355E-15, 1.224646799147353207E-16, -1.000000000000000000 ) ) ;
#170 = CC_DESIGN_PERSON_AND_ORGANIZATION_ASSIGNMENT ( #61, #106, ( #69 ) ) ;
#171 = PLANE ( 'NONE',  #197 ) ;
#172 = DIRECTION ( 'NONE',  ( 3.491481338843133355E-15, -1.224646799147353207E-16, 1.000000000000000000 ) ) ;
#173 = EDGE_CURVE ( 'NONE', #85, #85, #51, .T. ) ;
#174 = DIRECTION ( 'NONE',  ( -4.275831445896958607E-31, -1.000000000000000000, -1.224646799147353207E-16 ) ) ;
#175 = APPROVAL_STATUS ( 'not_yet_approved' ) ;
#176 = FACE_OUTER_BOUND ( 'NONE', #139, .T. ) ;
#177 = DIRECTION ( 'NONE',  ( -3.491481338843133355E-15, 1.224646799147353207E-16, -1.000000000000000000 ) ) ;
#178 = CC_DESIGN_DATE_AND_TIME_ASSIGNMENT ( #17, #33, ( #83 ) ) ;
#179 = DESIGN_CONTEXT ( 'detailed design', #123, 'design' ) ;
#180 = CC_DESIGN_PERSON_AND_ORGANIZATION_ASSIGNMENT ( #14, #222, ( #59 ) ) ;
#181 = VERTEX_POINT ( 'NONE', #22 ) ;
#182 = EDGE_LOOP ( 'NONE', ( #110 ) ) ;
#183 = EDGE_LOOP ( 'NONE', ( #91 ) ) ;
#184 = ORIENTED_EDGE ( 'NONE', *, *, #95, .T. ) ;
#185 = CC_DESIGN_DATE_AND_TIME_ASSIGNMENT ( #204, #38, ( #59 ) ) ;
#186 = FACE_OUTER_BOUND ( 'NONE', #72, .T. ) ;
#187 = APPROVAL_ROLE ( '' ) ;
#188 = CARTESIAN_POINT ( 'NONE',  ( 2.793185071074506684E-14, -0.9999999999999978906, 8.000000000000000000 ) ) ;
#189 = MECHANICAL_CONTEXT ( 'NONE', #21, 'mechanical' ) ;
#190 = DIRECTION ( 'NONE',  ( -3.491481338843133355E-15, 1.224646799147353207E-16, -1.000000000000000000 ) ) ;
#191 = ADVANCED_FACE ( 'NONE', ( #176, #186 ), #218, .T. ) ;
#192 = DIRECTION ( 'NONE',  ( 3.491481338843133355E-15, -1.224646799147353207E-16, 1.000000000000000000 ) ) ;
#193 = VERTEX_POINT ( 'NONE', #188 ) ;
#194 = LOCAL_TIME ( 15, 59, 1.000000000000000000, #79 ) ;
#195 = APPROVAL_PERSON_ORGANIZATION ( #148, #30, #187 ) ;
#196 = PERSON ( 'UNSPECIFIED', 'UNSPECIFIED', 'UNSPECIFIED', ('UNSPECIFIED'), ('UNSPECIFIED'), ('UNSPECIFIED') ) ;
#197 = AXIS2_PLACEMENT_3D ( 'NONE', #216, #3, #54 ) ;
#198 = AXIS2_PLACEMENT_3D ( 'NONE', #101, #104, #53 ) ;
#199 = DIRECTION ( 'NONE',  ( 3.491481338843133355E-15, -1.227517819005651059E-16, 1.000000000000000000 ) ) ;
#200 = ADVANCED_FACE ( 'NONE', ( #15, #100 ), #80, .T. ) ;
#201 = CARTESIAN_POINT ( 'NONE',  ( 2.793185071074506684E-14, -9.820142552045208469E-16, 8.000000000000000000 ) ) ;
#202 = PERSON_AND_ORGANIZATION_ROLE ( 'creator' ) ;
#203 = DIRECTION ( 'NONE',  ( 3.491481338843133355E-15, -1.227517819005651059E-16, 1.000000000000000000 ) ) ;
#204 = DATE_AND_TIME ( #166, #194 ) ;
#205 = EDGE_CURVE ( 'NONE', #181, #181, #142, .T. ) ;
#206 = AXIS2_PLACEMENT_3D ( 'NONE', #201, #163, #102 ) ;
#207 = DIRECTION ( 'NONE',  ( 4.275831445896958607E-31, 1.000000000000000000, 1.224646799147353207E-16 ) ) ;
#208 = COORDINATED_UNIVERSAL_TIME_OFFSET ( 1, 0, .AHEAD. ) ;
#209 = FACE_OUTER_BOUND ( 'NONE', #26, .T. ) ;
#210 = CALENDAR_DATE ( 2021, 16, 11 ) ;
#211 = CONICAL_SURFACE ( 'NONE', #49, 1.199999999999993738, 0.7853981633974453924 ) ;
#212 = ADVANCED_BREP_SHAPE_REPRESENTATION ( '964108', ( #220, #223, #198 ), #89 ) ;
#213 = CC_DESIGN_PERSON_AND_ORGANIZATION_ASSIGNMENT ( #64, #202, ( #83 ) ) ;
#214 = ORIENTED_EDGE ( 'NONE', *, *, #173, .F. ) ;
#215 = EDGE_LOOP ( 'NONE', ( #214 ) ) ;
#216 = CARTESIAN_POINT ( 'NONE',  ( 2.793185071074506684E-14, 1.124819836996384448E-32, 8.000000000000000000 ) ) ;
#217 = AXIS2_PLACEMENT_3D ( 'NONE', #126, #192, #13 ) ;
#218 = CYLINDRICAL_SURFACE ( 'NONE', #121, 1.499999999999992006 ) ;
#219 = APPLICATION_PROTOCOL_DEFINITION ( 'international standard', 'config_control_design', 1994, #123 ) ;
#220 = MANIFOLD_SOLID_BREP ( 'Corps-Déplacer/Copier1[1]', #96 ) ;
#221 = PLANE ( 'NONE',  #65 ) ;
#222 = PERSON_AND_ORGANIZATION_ROLE ( 'classification_officer' ) ;
#223 = MANIFOLD_SOLID_BREP ( 'Corps-Déplacer/Copier1[2]', #68 ) ;
ENDSEC;
END-ISO-10303-21;
