ISO-10303-21;
HEADER;
FILE_DESCRIPTION (( 'STEP AP203' ),
    '1' );
FILE_NAME ('964090.step',
    '2021-11-30T09:57:14',
    ( '' ),
    ( '' ),
    'SwSTEP 2.0',
    'SolidWorks 2019',
    '' );
FILE_SCHEMA (( 'CONFIG_CONTROL_DESIGN' ));
ENDSEC;

DATA;
#1 = AXIS2_PLACEMENT_3D ( 'NONE', #11, #110, #86 ) ;
#2 = ORIENTED_EDGE ( 'NONE', *, *, #292, .T. ) ;
#3 = CARTESIAN_POINT ( 'NONE',  ( 8.849961221477469775E-14, -3.104148534859897544E-15, 25.34729635533384595 ) ) ;
#4 = EDGE_CURVE ( 'NONE', #66, #66, #105, .T. ) ;
#5 = DIRECTION ( 'NONE',  ( -3.491481338843133355E-15, 1.224646799147353454E-16, -1.000000000000000000 ) ) ;
#6 = APPROVAL_PERSON_ORGANIZATION ( #71, #285, #303 ) ;
#7 = DIRECTION ( 'NONE',  ( 0.0000000000000000000, 1.000000000000000000, 0.0000000000000000000 ) ) ;
#8 = CARTESIAN_POINT ( 'NONE',  ( 8.728703347107833388E-14, -3.035766082959412415E-15, 25.00000000000000000 ) ) ;
#9 = CYLINDRICAL_SURFACE ( 'NONE', #36, 1.249999999999998890 ) ;
#10 = AXIS2_PLACEMENT_3D ( 'NONE', #64, #62, #223 ) ;
#11 = CARTESIAN_POINT ( 'NONE',  ( 3.491481338843133355E-14, 1.093699821506158147E-32, 10.00000000000000000 ) ) ;
#12 = DIRECTION ( 'NONE',  ( -3.491481338843133355E-15, 1.224646799147353454E-16, -1.000000000000000000 ) ) ;
#13 = ADVANCED_FACE ( 'NONE', ( #166, #250 ), #76, .T. ) ;
#14 = CARTESIAN_POINT ( 'NONE',  ( 3.617570109905906359E-14, 1.249999999999996891, 10.36113259337811954 ) ) ;
#15 = VERTEX_POINT ( 'NONE', #112 ) ;
#16 = LOCAL_TIME ( 10, 57, 14.00000000000000000, #231 ) ;
#17 = TOROIDAL_SURFACE ( 'NONE', #228, 3.250000000000000000, 2.000000000000000000 ) ;
#18 = PERSON_AND_ORGANIZATION ( #164, #41 ) ;
#19 = FACE_BOUND ( 'NONE', #43, .T. ) ;
#20 = APPROVAL_STATUS ( 'not_yet_approved' ) ;
#21 = CARTESIAN_POINT ( 'NONE',  ( 8.728703347107833388E-14, -3.061616997868383831E-15, 25.00000000000000000 ) ) ;
#22 = APPROVAL_DATE_TIME ( #220, #129 ) ;
#23 = CC_DESIGN_APPROVAL ( #129, ( #98 ) ) ;
#24 = DIRECTION ( 'NONE',  ( -3.491481338843133355E-15, 1.224646799147353454E-16, -1.000000000000000000 ) ) ;
#25 = AXIS2_PLACEMENT_3D ( 'NONE', #21, #52, #118 ) ;
#26 = APPROVAL_STATUS ( 'not_yet_approved' ) ;
#27 = CC_DESIGN_PERSON_AND_ORGANIZATION_ASSIGNMENT ( #141, #276, ( #274 ) ) ;
#28 = SHAPE_DEFINITION_REPRESENTATION ( #232, #151 ) ;
#29 = FACE_OUTER_BOUND ( 'NONE', #272, .T. ) ;
#30 = DIRECTION ( 'NONE',  ( -3.491481338843133355E-15, 1.224646799147353454E-16, -1.000000000000000000 ) ) ;
#31 = CARTESIAN_POINT ( 'NONE',  ( 3.617570109905906359E-14, -1.268872786602183144E-15, 10.36113259337811954 ) ) ;
#32 = FACE_OUTER_BOUND ( 'NONE', #161, .T. ) ;
#33 = CC_DESIGN_PERSON_AND_ORGANIZATION_ASSIGNMENT ( #18, #297, ( #98 ) ) ;
#34 = CARTESIAN_POINT ( 'NONE',  ( 0.0000000000000000000, 0.0000000000000000000, 0.0000000000000000000 ) ) ;
#35 = DIRECTION ( 'NONE',  ( -3.491481338843133355E-15, 1.224646799147353454E-16, -1.000000000000000000 ) ) ;
#36 = AXIS2_PLACEMENT_3D ( 'NONE', #171, #263, #150 ) ;
#37 = AXIS2_PLACEMENT_3D ( 'NONE', #59, #12, #189 ) ;
#38 = FACE_OUTER_BOUND ( 'NONE', #100, .T. ) ;
#39 = APPROVAL_ROLE ( '' ) ;
#40 = ADVANCED_FACE ( 'NONE', ( #205, #238 ), #206, .T. ) ;
#41 = ORGANIZATION ( 'UNSPECIFIED', 'UNSPECIFIED', '' ) ;
#42 = CALENDAR_DATE ( 2021, 30, 11 ) ;
#43 = EDGE_LOOP ( 'NONE', ( #2 ) ) ;
#44 = VERTEX_POINT ( 'NONE', #140 ) ;
#45 = CARTESIAN_POINT ( 'NONE',  ( 9.284825720332949933E-14, -3.256678468404562126E-15, 26.59279778195629973 ) ) ;
#46 = DIRECTION ( 'NONE',  ( -3.491481338843133355E-15, 1.224646799147353454E-16, -1.000000000000000000 ) ) ;
#47 = MANIFOLD_SOLID_BREP ( 'Corps-Déplacer/Copier1[2]', #128 ) ;
#48 = EDGE_LOOP ( 'NONE', ( #65 ) ) ;
#49 = CIRCLE ( 'NONE', #37, 1.249999999999998224 ) ;
#50 = APPROVAL_ROLE ( '' ) ;
#51 = EDGE_CURVE ( 'NONE', #44, #44, #275, .T. ) ;
#52 = DIRECTION ( 'NONE',  ( -3.491481338843133355E-15, 1.224646799147353454E-16, -1.000000000000000000 ) ) ;
#53 = ORIENTED_EDGE ( 'NONE', *, *, #190, .F. ) ;
#54 = FACE_OUTER_BOUND ( 'NONE', #271, .T. ) ;
#55 = ADVANCED_FACE ( 'NONE', ( #29 ), #125, .F. ) ;
#56 = AXIS2_PLACEMENT_3D ( 'NONE', #175, #106, #241 ) ;
#57 = PLANE ( 'NONE',  #69 ) ;
#58 = DIRECTION ( 'NONE',  ( 3.961460290134873951E-31, 1.000000000000000000, 1.115051942905902206E-16 ) ) ;
#59 = CARTESIAN_POINT ( 'NONE',  ( 3.617570109905906359E-14, -1.268872786602183144E-15, 10.36113259337811954 ) ) ;
#60 = PLANE ( 'NONE',  #1 ) ;
#61 = ORIENTED_EDGE ( 'NONE', *, *, #4, .F. ) ;
#62 = DIRECTION ( 'NONE',  ( 0.0000000000000000000, 0.0000000000000000000, 1.000000000000000000 ) ) ;
#63 = APPLICATION_CONTEXT ( 'configuration controlled 3d designs of mechanical parts and assemblies' ) ;
#64 = CARTESIAN_POINT ( 'NONE',  ( 0.0000000000000000000, 0.0000000000000000000, 0.0000000000000000000 ) ) ;
#65 = ORIENTED_EDGE ( 'NONE', *, *, #117, .F. ) ;
#66 = VERTEX_POINT ( 'NONE', #136 ) ;
#67 = EDGE_LOOP ( 'NONE', ( #185 ) ) ;
#68 = DATE_TIME_ROLE ( 'classification_date' ) ;
#69 = AXIS2_PLACEMENT_3D ( 'NONE', #216, #289, #79 ) ;
#70 = CONICAL_SURFACE ( 'NONE', #149, 1.200000000000001510, 0.7853981633974453924 ) ;
#71 = PERSON_AND_ORGANIZATION ( #164, #41 ) ;
#72 = COORDINATED_UNIVERSAL_TIME_OFFSET ( 1, 0, .AHEAD. ) ;
#73 = EDGE_LOOP ( 'NONE', ( #229 ) ) ;
#74 = ORIENTED_EDGE ( 'NONE', *, *, #298, .T. ) ;
#75 = CC_DESIGN_APPROVAL ( #78, ( #274 ) ) ;
#76 = CONICAL_SURFACE ( 'NONE', #121, 1.499999999999996003, 0.1745329251994270359 ) ;
#77 = PLANE ( 'NONE',  #176 ) ;
#78 = APPROVAL ( #20, 'UNSPECIFIED' ) ;
#79 = DIRECTION ( 'NONE',  ( -4.275831445896959482E-31, -1.000000000000000000, -1.224646799147353454E-16 ) ) ;
#80 = MANIFOLD_SOLID_BREP ( 'Corps-Déplacer/Copier1[1]', #302 ) ;
#81 = FACE_OUTER_BOUND ( 'NONE', #178, .T. ) ;
#82 = APPLICATION_CONTEXT ( 'configuration controlled 3d designs of mechanical parts and assemblies' ) ;
#83 = AXIS2_PLACEMENT_3D ( 'NONE', #153, #245, #87 ) ;
#84 = DIRECTION ( 'NONE',  ( 0.0000000000000000000, 1.000000000000000000, 0.0000000000000000000 ) ) ;
#85 = ADVANCED_FACE ( 'NONE', ( #209, #19 ), #70, .T. ) ;
#86 = DIRECTION ( 'NONE',  ( -4.275831445896959482E-31, -1.000000000000000000, -1.224646799147353454E-16 ) ) ;
#87 = DIRECTION ( 'NONE',  ( 0.0000000000000000000, 1.000000000000000000, 0.0000000000000000000 ) ) ;
#88 = CC_DESIGN_SECURITY_CLASSIFICATION ( #199, ( #274 ) ) ;
#89 = DIRECTION ( 'NONE',  ( 0.0000000000000000000, 1.000000000000000000, 0.0000000000000000000 ) ) ;
#90 = EDGE_LOOP ( 'NONE', ( #203 ) ) ;
#91 = EDGE_LOOP ( 'NONE', ( #200 ) ) ;
#92 = VERTEX_POINT ( 'NONE', #177 ) ;
#93 = EDGE_LOOP ( 'NONE', ( #197 ) ) ;
#94 = ADVANCED_FACE ( 'NONE', ( #282 ), #77, .F. ) ;
#95 = PERSON_AND_ORGANIZATION ( #164, #41 ) ;
#96 =( GEOMETRIC_REPRESENTATION_CONTEXT ( 3 ) GLOBAL_UNCERTAINTY_ASSIGNED_CONTEXT ( ( #160 ) ) GLOBAL_UNIT_ASSIGNED_CONTEXT ( ( #293, #179, #300 ) ) REPRESENTATION_CONTEXT ( 'NONE', 'WORKASPACE' ) );
#97 = AXIS2_PLACEMENT_3D ( 'NONE', #287, #262, #7 ) ;
#98 = PRODUCT_DEFINITION ( 'UNKNOWN', '', #274, #227 ) ;
#99 = APPROVAL_DATE_TIME ( #124, #78 ) ;
#100 = EDGE_LOOP ( 'NONE', ( #290 ) ) ;
#101 = CALENDAR_DATE ( 2021, 30, 11 ) ;
#102 = EDGE_LOOP ( 'NONE', ( #53 ) ) ;
#103 = CONICAL_SURFACE ( 'NONE', #184, 1.249999999999998224, 0.5235987755982922653 ) ;
#104 = DIRECTION ( 'NONE',  ( 3.491481338843133355E-15, -1.224646799147353454E-16, 1.000000000000000000 ) ) ;
#105 = CIRCLE ( 'NONE', #168, 1.280384493975580851 ) ;
#106 = DIRECTION ( 'NONE',  ( -3.491481338843133355E-15, 1.224646799147353454E-16, -1.000000000000000000 ) ) ;
#107 = DIRECTION ( 'NONE',  ( 0.0000000000000000000, 1.000000000000000000, 0.0000000000000000000 ) ) ;
#108 = CARTESIAN_POINT ( 'NONE',  ( 3.491481338843133355E-14, -1.224646799147353454E-15, 10.00000000000000000 ) ) ;
#109 = ADVANCED_FACE ( 'NONE', ( #152, #170 ), #284, .T. ) ;
#110 = DIRECTION ( 'NONE',  ( 3.491481338843133355E-15, -1.224646799147353454E-16, 1.000000000000000000 ) ) ;
#111 = DIRECTION ( 'NONE',  ( 0.0000000000000000000, 1.000000000000000000, 0.0000000000000000000 ) ) ;
#112 = CARTESIAN_POINT ( 'NONE',  ( 8.728703347107833388E-16, 1.458499999999998575, 0.2500000000000000000 ) ) ;
#113 = ADVANCED_FACE ( 'NONE', ( #38, #194 ), #17, .F. ) ;
#114 = VERTEX_POINT ( 'NONE', #270 ) ;
#115 = ORIENTED_EDGE ( 'NONE', *, *, #195, .F. ) ;
#116 = CARTESIAN_POINT ( 'NONE',  ( 0.0000000000000000000, 1.314162432702594474, 0.0000000000000000000 ) ) ;
#117 = EDGE_CURVE ( 'NONE', #92, #92, #253, .T. ) ;
#118 = DIRECTION ( 'NONE',  ( 0.0000000000000000000, 1.000000000000000000, 0.0000000000000000000 ) ) ;
#119 = CIRCLE ( 'NONE', #144, 1.500000000000001332 ) ;
#120 = CALENDAR_DATE ( 2021, 30, 11 ) ;
#121 = AXIS2_PLACEMENT_3D ( 'NONE', #45, #104, #122 ) ;
#122 = DIRECTION ( 'NONE',  ( 0.0000000000000000000, -1.000000000000000000, 0.0000000000000000000 ) ) ;
#123 = APPROVAL_DATE_TIME ( #255, #285 ) ;
#124 = DATE_AND_TIME ( #101, #230 ) ;
#125 = PLANE ( 'NONE',  #294 ) ;
#126 = EDGE_LOOP ( 'NONE', ( #295 ) ) ;
#127 = CIRCLE ( 'NONE', #254, 1.458499999999999908 ) ;
#128 = CLOSED_SHELL ( 'NONE', ( #226, #40, #109, #281 ) ) ;
#129 = APPROVAL ( #202, 'UNSPECIFIED' ) ;
#130 = DIRECTION ( 'NONE',  ( -3.491481338843133355E-15, 1.224646799147353454E-16, -1.000000000000000000 ) ) ;
#131 = DIRECTION ( 'NONE',  ( 4.275831445896960358E-31, 1.000000000000000000, 1.224646799147353454E-16 ) ) ;
#132 = CIRCLE ( 'NONE', #83, 1.200000000000001510 ) ;
#133 = FACE_OUTER_BOUND ( 'NONE', #93, .T. ) ;
#134 = COORDINATED_UNIVERSAL_TIME_OFFSET ( 1, 0, .AHEAD. ) ;
#135 = CC_DESIGN_DATE_AND_TIME_ASSIGNMENT ( #182, #249, ( #98 ) ) ;
#136 = CARTESIAN_POINT ( 'NONE',  ( 8.849961221477469775E-14, 1.280384493975577742, 25.34729635533384595 ) ) ;
#137 = VERTEX_POINT ( 'NONE', #14 ) ;
#138 = PERSON_AND_ORGANIZATION_ROLE ( 'design_owner' ) ;
#139 = CARTESIAN_POINT ( 'NONE',  ( 8.728703347107827472E-16, -3.061616997868381785E-17, 0.2499999999999998335 ) ) ;
#140 = CARTESIAN_POINT ( 'NONE',  ( 8.728703347107833388E-14, 1.249999999999996669, 25.00000000000000000 ) ) ;
#141 = PERSON_AND_ORGANIZATION ( #164, #41 ) ;
#142 = CALENDAR_DATE ( 2021, 30, 11 ) ;
#143 = PERSON_AND_ORGANIZATION ( #164, #41 ) ;
#144 = AXIS2_PLACEMENT_3D ( 'NONE', #239, #46, #89 ) ;
#145 = ORIENTED_EDGE ( 'NONE', *, *, #292, .F. ) ;
#146 = EDGE_LOOP ( 'NONE', ( #299 ) ) ;
#147 = DIRECTION ( 'NONE',  ( -3.491481338843133355E-15, 1.224646799147353454E-16, -1.000000000000000000 ) ) ;
#148 = ADVANCED_FACE ( 'NONE', ( #133, #192 ), #103, .T. ) ;
#149 = AXIS2_PLACEMENT_3D ( 'NONE', #279, #5, #187 ) ;
#150 = DIRECTION ( 'NONE',  ( 4.275831445896960358E-31, 1.000000000000000000, 1.224646799147353454E-16 ) ) ;
#151 = ADVANCED_BREP_SHAPE_REPRESENTATION ( '964090', ( #80, #47, #10 ), #96 ) ;
#152 = FACE_OUTER_BOUND ( 'NONE', #67, .T. ) ;
#153 = CARTESIAN_POINT ( 'NONE',  ( 2.129803616694311221E-13, -7.470345474798856659E-15, 61.00000000000000000 ) ) ;
#154 = VERTEX_POINT ( 'NONE', #273 ) ;
#155 = ORIENTED_EDGE ( 'NONE', *, *, #247, .T. ) ;
#156 = CARTESIAN_POINT ( 'NONE',  ( 2.119329172677781757E-13, 1.499999999999994005, 60.69999999999999574 ) ) ;
#157 = LOCAL_TIME ( 10, 57, 14.00000000000000000, #72 ) ;
#158 = COORDINATED_UNIVERSAL_TIME_OFFSET ( 1, 0, .AHEAD. ) ;
#159 = EDGE_LOOP ( 'NONE', ( #115 ) ) ;
#160 = UNCERTAINTY_MEASURE_WITH_UNIT (LENGTH_MEASURE( 1.000000000000000082E-05 ), #293, 'distance_accuracy_value', 'NONE');
#161 = EDGE_LOOP ( 'NONE', ( #181 ) ) ;
#162 = AXIS2_PLACEMENT_3D ( 'NONE', #174, #130, #107 ) ;
#163 = SECURITY_CLASSIFICATION_LEVEL ( 'unclassified' ) ;
#164 = PERSON ( 'UNSPECIFIED', 'UNSPECIFIED', 'UNSPECIFIED', ('UNSPECIFIED'), ('UNSPECIFIED'), ('UNSPECIFIED') ) ;
#165 = COORDINATED_UNIVERSAL_TIME_OFFSET ( 1, 0, .AHEAD. ) ;
#166 = FACE_BOUND ( 'NONE', #207, .T. ) ;
#167 = DIRECTION ( 'NONE',  ( 0.0000000000000000000, 1.000000000000000000, 0.0000000000000000000 ) ) ;
#168 = AXIS2_PLACEMENT_3D ( 'NONE', #3, #24, #167 ) ;
#169 = CARTESIAN_POINT ( 'NONE',  ( 3.491481338843133355E-14, 1.093699821506158147E-32, 10.00000000000000000 ) ) ;
#170 = FACE_OUTER_BOUND ( 'NONE', #126, .T. ) ;
#171 = CARTESIAN_POINT ( 'NONE',  ( 0.0000000000000000000, 0.0000000000000000000, 0.0000000000000000000 ) ) ;
#172 = APPROVAL_PERSON_ORGANIZATION ( #95, #129, #39 ) ;
#173 = FACE_OUTER_BOUND ( 'NONE', #221, .T. ) ;
#174 = CARTESIAN_POINT ( 'NONE',  ( 3.491481338843133355E-14, -1.224646799147353454E-15, 10.00000000000000000 ) ) ;
#175 = CARTESIAN_POINT ( 'NONE',  ( -5.619137054766199561E-31, 1.970927964452422016E-32, -1.609384816768931491E-16 ) ) ;
#176 = AXIS2_PLACEMENT_3D ( 'NONE', #169, #261, #265 ) ;
#177 = CARTESIAN_POINT ( 'NONE',  ( 3.491481338843133355E-14, 1.458499999999998575, 10.00000000000000000 ) ) ;
#178 = EDGE_LOOP ( 'NONE', ( #301 ) ) ;
#179 =( NAMED_UNIT ( * ) PLANE_ANGLE_UNIT ( ) SI_UNIT ( $, .RADIAN. ) );
#180 = EDGE_LOOP ( 'NONE', ( #155 ) ) ;
#181 = ORIENTED_EDGE ( 'NONE', *, *, #51, .T. ) ;
#182 = DATE_AND_TIME ( #120, #212 ) ;
#183 = ADVANCED_FACE ( 'NONE', ( #81, #32 ), #9, .T. ) ;
#184 = AXIS2_PLACEMENT_3D ( 'NONE', #31, #191, #84 ) ;
#185 = ORIENTED_EDGE ( 'NONE', *, *, #243, .F. ) ;
#186 = ORIENTED_EDGE ( 'NONE', *, *, #190, .T. ) ;
#187 = DIRECTION ( 'NONE',  ( 0.0000000000000000000, 1.000000000000000000, 0.0000000000000000000 ) ) ;
#188 = AXIS2_PLACEMENT_3D ( 'NONE', #139, #225, #258 ) ;
#189 = DIRECTION ( 'NONE',  ( 0.0000000000000000000, 1.000000000000000000, 0.0000000000000000000 ) ) ;
#190 = EDGE_CURVE ( 'NONE', #154, #154, #233, .T. ) ;
#191 = DIRECTION ( 'NONE',  ( -3.491481338843133355E-15, 1.224646799147353454E-16, -1.000000000000000000 ) ) ;
#192 = FACE_BOUND ( 'NONE', #73, .T. ) ;
#193 = AXIS2_PLACEMENT_3D ( 'NONE', #34, #264, #131 ) ;
#194 = FACE_OUTER_BOUND ( 'NONE', #91, .T. ) ;
#195 = EDGE_CURVE ( 'NONE', #246, #246, #235, .T. ) ;
#196 = CYLINDRICAL_SURFACE ( 'NONE', #193, 1.499999999999998668 ) ;
#197 = ORIENTED_EDGE ( 'NONE', *, *, #247, .F. ) ;
#198 = VERTEX_POINT ( 'NONE', #204 ) ;
#199 = SECURITY_CLASSIFICATION ( '', '', #163 ) ;
#200 = ORIENTED_EDGE ( 'NONE', *, *, #4, .T. ) ;
#201 = CC_DESIGN_DATE_AND_TIME_ASSIGNMENT ( #252, #68, ( #199 ) ) ;
#202 = APPROVAL_STATUS ( 'not_yet_approved' ) ;
#203 = ORIENTED_EDGE ( 'NONE', *, *, #298, .F. ) ;
#204 = CARTESIAN_POINT ( 'NONE',  ( 2.129803616694311221E-13, 1.199999999999993960, 61.00000000000000000 ) ) ;
#205 = FACE_BOUND ( 'NONE', #159, .T. ) ;
#206 = CONICAL_SURFACE ( 'NONE', #188, 1.458499999999998575, 0.5235987755982920433 ) ;
#207 = EDGE_LOOP ( 'NONE', ( #61 ) ) ;
#208 = PERSON_AND_ORGANIZATION_ROLE ( 'design_supplier' ) ;
#209 = FACE_OUTER_BOUND ( 'NONE', #90, .T. ) ;
#210 = DIRECTION ( 'NONE',  ( 4.275831445896959482E-31, 1.000000000000000000, 1.224646799147353454E-16 ) ) ;
#211 = AXIS2_PLACEMENT_3D ( 'NONE', #244, #215, #213 ) ;
#212 = LOCAL_TIME ( 10, 57, 14.00000000000000000, #158 ) ;
#213 = DIRECTION ( 'NONE',  ( 4.275831445896959482E-31, 1.000000000000000000, 1.224646799147353454E-16 ) ) ;
#214 = CC_DESIGN_PERSON_AND_ORGANIZATION_ASSIGNMENT ( #236, #257, ( #199 ) ) ;
#215 = DIRECTION ( 'NONE',  ( -3.491481338843133355E-15, 1.224646799147353454E-16, -1.000000000000000000 ) ) ;
#216 = CARTESIAN_POINT ( 'NONE',  ( -2.809568527383099781E-31, 9.854639822262110080E-33, -8.046924083844657457E-17 ) ) ;
#217 = FACE_OUTER_BOUND ( 'NONE', #48, .T. ) ;
#218 = FACE_OUTER_BOUND ( 'NONE', #102, .T. ) ;
#219 = PRODUCT ( '964090', '964090', '', ( #269 ) ) ;
#220 = DATE_AND_TIME ( #42, #240 ) ;
#221 = EDGE_LOOP ( 'NONE', ( #74 ) ) ;
#222 = EDGE_CURVE ( 'NONE', #137, #137, #49, .T. ) ;
#223 = DIRECTION ( 'NONE',  ( 1.000000000000000000, 0.0000000000000000000, 0.0000000000000000000 ) ) ;
#224 = PERSON_AND_ORGANIZATION ( #164, #41 ) ;
#225 = DIRECTION ( 'NONE',  ( 3.491481338843133355E-15, -1.224646799147353454E-16, 1.000000000000000000 ) ) ;
#226 = ADVANCED_FACE ( 'NONE', ( #54 ), #57, .F. ) ;
#227 = DESIGN_CONTEXT ( 'detailed design', #82, 'design' ) ;
#228 = AXIS2_PLACEMENT_3D ( 'NONE', #8, #35, #291 ) ;
#229 = ORIENTED_EDGE ( 'NONE', *, *, #222, .T. ) ;
#230 = LOCAL_TIME ( 10, 57, 14.00000000000000000, #165 ) ;
#231 = COORDINATED_UNIVERSAL_TIME_OFFSET ( 1, 0, .AHEAD. ) ;
#232 = PRODUCT_DEFINITION_SHAPE ( 'NONE', 'NONE',  #98 ) ;
#233 = CIRCLE ( 'NONE', #97, 1.499999999999996003 ) ;
#234 = AXIS2_PLACEMENT_3D ( 'NONE', #283, #147, #58 ) ;
#235 = CIRCLE ( 'NONE', #56, 1.314162432702594474 ) ;
#236 = PERSON_AND_ORGANIZATION ( #164, #41 ) ;
#237 = EDGE_LOOP ( 'NONE', ( #186 ) ) ;
#238 = FACE_OUTER_BOUND ( 'NONE', #146, .T. ) ;
#239 = CARTESIAN_POINT ( 'NONE',  ( 2.119329172677781757E-13, -7.433606070824434221E-15, 60.69999999999999574 ) ) ;
#240 = LOCAL_TIME ( 10, 57, 14.00000000000000000, #134 ) ;
#241 = DIRECTION ( 'NONE',  ( 4.275831445896958607E-31, 1.000000000000000000, 1.224646799147353454E-16 ) ) ;
#242 = DIRECTION ( 'NONE',  ( -3.491481338843133355E-15, 1.224646799147353454E-16, -1.000000000000000000 ) ) ;
#243 = EDGE_CURVE ( 'NONE', #15, #15, #286, .T. ) ;
#244 = CARTESIAN_POINT ( 'NONE',  ( 0.0000000000000000000, 0.0000000000000000000, 0.0000000000000000000 ) ) ;
#245 = DIRECTION ( 'NONE',  ( -3.491481338843133355E-15, 1.224646799147353454E-16, -1.000000000000000000 ) ) ;
#246 = VERTEX_POINT ( 'NONE', #116 ) ;
#247 = EDGE_CURVE ( 'NONE', #114, #114, #127, .T. ) ;
#248 = APPLICATION_PROTOCOL_DEFINITION ( 'international standard', 'config_control_design', 1994, #82 ) ;
#249 = DATE_TIME_ROLE ( 'creation_date' ) ;
#250 = FACE_OUTER_BOUND ( 'NONE', #237, .T. ) ;
#251 = PERSON_AND_ORGANIZATION ( #164, #41 ) ;
#252 = DATE_AND_TIME ( #277, #16 ) ;
#253 = CIRCLE ( 'NONE', #162, 1.458499999999999908 ) ;
#254 = AXIS2_PLACEMENT_3D ( 'NONE', #108, #242, #111 ) ;
#255 = DATE_AND_TIME ( #142, #157 ) ;
#256 = ADVANCED_FACE ( 'NONE', ( #218, #173 ), #196, .T. ) ;
#257 = PERSON_AND_ORGANIZATION_ROLE ( 'classification_officer' ) ;
#258 = DIRECTION ( 'NONE',  ( -3.961460290134873951E-31, -1.000000000000000000, -1.115051942905902206E-16 ) ) ;
#259 = CARTESIAN_POINT ( 'NONE',  ( 2.129803616694311221E-13, 8.998558695971049855E-33, 61.00000000000000000 ) ) ;
#260 = CC_DESIGN_PERSON_AND_ORGANIZATION_ASSIGNMENT ( #251, #138, ( #219 ) ) ;
#261 = DIRECTION ( 'NONE',  ( 3.491481338843133355E-15, -1.224646799147353454E-16, 1.000000000000000000 ) ) ;
#262 = DIRECTION ( 'NONE',  ( -3.491481338843133355E-15, 1.224646799147353454E-16, -1.000000000000000000 ) ) ;
#263 = DIRECTION ( 'NONE',  ( -3.491481338843133355E-15, 1.224646799147353454E-16, -1.000000000000000000 ) ) ;
#264 = DIRECTION ( 'NONE',  ( -3.491481338843133355E-15, 1.224646799147353454E-16, -1.000000000000000000 ) ) ;
#265 = DIRECTION ( 'NONE',  ( -4.275831445896959482E-31, -1.000000000000000000, -1.224646799147353454E-16 ) ) ;
#266 = CC_DESIGN_APPROVAL ( #285, ( #199 ) ) ;
#267 = APPLICATION_PROTOCOL_DEFINITION ( 'international standard', 'config_control_design', 1994, #63 ) ;
#268 = CC_DESIGN_PERSON_AND_ORGANIZATION_ASSIGNMENT ( #143, #208, ( #274 ) ) ;
#269 = MECHANICAL_CONTEXT ( 'NONE', #63, 'mechanical' ) ;
#270 = CARTESIAN_POINT ( 'NONE',  ( 3.491481338843133355E-14, 1.458499999999998575, 10.00000000000000000 ) ) ;
#271 = EDGE_LOOP ( 'NONE', ( #278 ) ) ;
#272 = EDGE_LOOP ( 'NONE', ( #145 ) ) ;
#273 = CARTESIAN_POINT ( 'NONE',  ( 9.284825720332949933E-14, 1.499999999999992673, 26.59279778195629973 ) ) ;
#274 = PRODUCT_DEFINITION_FORMATION_WITH_SPECIFIED_SOURCE ( 'ANY', '', #219, .NOT_KNOWN. ) ;
#275 = CIRCLE ( 'NONE', #25, 1.249999999999999778 ) ;
#276 = PERSON_AND_ORGANIZATION_ROLE ( 'creator' ) ;
#277 = CALENDAR_DATE ( 2021, 30, 11 ) ;
#278 = ORIENTED_EDGE ( 'NONE', *, *, #195, .T. ) ;
#279 = CARTESIAN_POINT ( 'NONE',  ( 2.129803616694311221E-13, -7.470345474798856659E-15, 61.00000000000000000 ) ) ;
#280 = APPROVAL_PERSON_ORGANIZATION ( #224, #78, #50 ) ;
#281 = ADVANCED_FACE ( 'NONE', ( #217 ), #60, .T. ) ;
#282 = FACE_OUTER_BOUND ( 'NONE', #180, .T. ) ;
#283 = CARTESIAN_POINT ( 'NONE',  ( 8.728703347107827472E-16, -3.061616997868381785E-17, 0.2499999999999998335 ) ) ;
#284 = CYLINDRICAL_SURFACE ( 'NONE', #211, 1.458499999999999241 ) ;
#285 = APPROVAL ( #26, 'UNSPECIFIED' ) ;
#286 = CIRCLE ( 'NONE', #234, 1.458499999999998575 ) ;
#287 = CARTESIAN_POINT ( 'NONE',  ( 9.284825720332949933E-14, -3.256678468404562126E-15, 26.59279778195629973 ) ) ;
#288 = PRODUCT_RELATED_PRODUCT_CATEGORY ( 'detail', '', ( #219 ) ) ;
#289 = DIRECTION ( 'NONE',  ( 3.491481338843133355E-15, -1.224646799147353454E-16, 1.000000000000000000 ) ) ;
#290 = ORIENTED_EDGE ( 'NONE', *, *, #51, .F. ) ;
#291 = DIRECTION ( 'NONE',  ( 4.275831445896959482E-31, 1.000000000000000000, 1.224646799147353454E-16 ) ) ;
#292 = EDGE_CURVE ( 'NONE', #198, #198, #132, .T. ) ;
#293 =( LENGTH_UNIT ( ) NAMED_UNIT ( * ) SI_UNIT ( .MILLI., .METRE. ) );
#294 = AXIS2_PLACEMENT_3D ( 'NONE', #259, #30, #210 ) ;
#295 = ORIENTED_EDGE ( 'NONE', *, *, #117, .T. ) ;
#296 = VERTEX_POINT ( 'NONE', #156 ) ;
#297 = PERSON_AND_ORGANIZATION_ROLE ( 'creator' ) ;
#298 = EDGE_CURVE ( 'NONE', #296, #296, #119, .T. ) ;
#299 = ORIENTED_EDGE ( 'NONE', *, *, #243, .T. ) ;
#300 =( NAMED_UNIT ( * ) SI_UNIT ( $, .STERADIAN. ) SOLID_ANGLE_UNIT ( ) );
#301 = ORIENTED_EDGE ( 'NONE', *, *, #222, .F. ) ;
#302 = CLOSED_SHELL ( 'NONE', ( #94, #148, #183, #113, #13, #256, #85, #55 ) ) ;
#303 = APPROVAL_ROLE ( '' ) ;
ENDSEC;
END-ISO-10303-21;
