ISO-10303-21;
HEADER;
FILE_DESCRIPTION (( 'STEP AP203' ),
    '1' );
FILE_NAME ('964048.step',
    '2021-12-02T08:11:05',
    ( '' ),
    ( '' ),
    'SwSTEP 2.0',
    'SolidWorks 2019',
    '' );
FILE_SCHEMA (( 'CONFIG_CONTROL_DESIGN' ));
ENDSEC;

DATA;
#1 = FACE_BOUND ( 'NONE', #133, .T. ) ;
#2 = CIRCLE ( 'NONE', #130, 5.000000000000000888 ) ;
#3 = CC_DESIGN_APPROVAL ( #20, ( #170 ) ) ;
#4 = CARTESIAN_POINT ( 'NONE',  ( 6.794071255224665522E-14, -2.383039406032393581E-15, 19.45899346400577201 ) ) ;
#5 = SECURITY_CLASSIFICATION_LEVEL ( 'unclassified' ) ;
#6 = FACE_OUTER_BOUND ( 'NONE', #45, .T. ) ;
#7 = ORIENTED_EDGE ( 'NONE', *, *, #179, .T. ) ;
#8 = DIRECTION ( 'NONE',  ( -3.491481338843133355E-15, 1.224646799147353207E-16, -1.000000000000000000 ) ) ;
#9 = AXIS2_PLACEMENT_3D ( 'NONE', #4, #154, #72 ) ;
#10 = AXIS2_PLACEMENT_3D ( 'NONE', #206, #11, #180 ) ;
#11 = DIRECTION ( 'NONE',  ( -3.491481338843133355E-15, 1.224646799147353207E-16, -1.000000000000000000 ) ) ;
#12 = CC_DESIGN_DATE_AND_TIME_ASSIGNMENT ( #216, #19, ( #128 ) ) ;
#13 = VERTEX_POINT ( 'NONE', #61 ) ;
#14 = CARTESIAN_POINT ( 'NONE',  ( 4.643670180661366731E-13, 2.999519565323696057E-32, 133.0000000000000000 ) ) ;
#15 =( NAMED_UNIT ( * ) PLANE_ANGLE_UNIT ( ) SI_UNIT ( $, .RADIAN. ) );
#16 = CARTESIAN_POINT ( 'NONE',  ( 6.794071255224665522E-14, 4.749999999999989342, 19.45899346400577201 ) ) ;
#17 = APPLICATION_PROTOCOL_DEFINITION ( 'international standard', 'config_control_design', 1994, #203 ) ;
#18 = LOCAL_TIME ( 9, 11, 5.000000000000000000, #99 ) ;
#19 = DATE_TIME_ROLE ( 'creation_date' ) ;
#20 = APPROVAL ( #264, 'UNSPECIFIED' ) ;
#21 = AXIS2_PLACEMENT_3D ( 'NONE', #106, #43, #196 ) ;
#22 = EDGE_LOOP ( 'NONE', ( #172 ) ) ;
#23 = PERSON_AND_ORGANIZATION_ROLE ( 'classification_officer' ) ;
#24 = EDGE_LOOP ( 'NONE', ( #66 ) ) ;
#25 = DIRECTION ( 'NONE',  ( 0.0000000000000000000, 1.000000000000000000, 0.0000000000000000000 ) ) ;
#26 = PERSON_AND_ORGANIZATION_ROLE ( 'design_supplier' ) ;
#27 = APPROVAL_PERSON_ORGANIZATION ( #260, #162, #193 ) ;
#28 = EDGE_LOOP ( 'NONE', ( #7 ) ) ;
#29 = EDGE_LOOP ( 'NONE', ( #194 ) ) ;
#30 = DIRECTION ( 'NONE',  ( 4.275831445896958607E-31, 1.000000000000000000, 1.224646799147353454E-16 ) ) ;
#31 = ADVANCED_FACE ( 'NONE', ( #68, #247 ), #259, .F. ) ;
#32 = FACE_OUTER_BOUND ( 'NONE', #101, .T. ) ;
#33 = DIRECTION ( 'NONE',  ( -3.491481338843133355E-15, 1.224646799147353207E-16, -1.000000000000000000 ) ) ;
#34 = DIRECTION ( 'NONE',  ( 0.0000000000000000000, 1.000000000000000000, 0.0000000000000000000 ) ) ;
#35 = APPROVAL_PERSON_ORGANIZATION ( #197, #20, #171 ) ;
#36 = PERSON_AND_ORGANIZATION_ROLE ( 'design_owner' ) ;
#37 = EDGE_CURVE ( 'NONE', #55, #55, #80, .T. ) ;
#38 = CIRCLE ( 'NONE', #237, 4.615000000000001990 ) ;
#39 = ADVANCED_FACE ( 'NONE', ( #177, #1 ), #187, .T. ) ;
#40 = APPLICATION_PROTOCOL_DEFINITION ( 'international standard', 'config_control_design', 1994, #282 ) ;
#41 = APPROVAL_STATUS ( 'not_yet_approved' ) ;
#42 = APPROVAL_DATE_TIME ( #211, #245 ) ;
#43 = DIRECTION ( 'NONE',  ( -3.491481338843133355E-15, 1.224646799147353207E-16, -1.000000000000000000 ) ) ;
#44 = AXIS2_PLACEMENT_3D ( 'NONE', #58, #273, #93 ) ;
#45 = EDGE_LOOP ( 'NONE', ( #192 ) ) ;
#46 = EDGE_LOOP ( 'NONE', ( #74 ) ) ;
#47 = DATE_AND_TIME ( #248, #125 ) ;
#48 = CARTESIAN_POINT ( 'NONE',  ( 1.396592535537251370E-15, -4.898587196589405680E-17, 0.3999999999999994116 ) ) ;
#49 = CALENDAR_DATE ( 2021, 2, 12 ) ;
#50 = ADVANCED_FACE ( 'NONE', ( #134, #87 ), #69, .T. ) ;
#51 = CC_DESIGN_SECURITY_CLASSIFICATION ( #170, ( #143 ) ) ;
#52 = EDGE_LOOP ( 'NONE', ( #269 ) ) ;
#53 = CARTESIAN_POINT ( 'NONE',  ( 4.643670180661366731E-13, -1.628780242865979995E-14, 133.0000000000000000 ) ) ;
#54 = CARTESIAN_POINT ( 'NONE',  ( -9.866481061407235895E-31, 3.460695698492237333E-32, -2.825872489032518356E-16 ) ) ;
#55 = VERTEX_POINT ( 'NONE', #117 ) ;
#56 = CC_DESIGN_APPROVAL ( #245, ( #143 ) ) ;
#57 = FACE_OUTER_BOUND ( 'NONE', #29, .T. ) ;
#58 = CARTESIAN_POINT ( 'NONE',  ( 0.0000000000000000000, 0.0000000000000000000, 0.0000000000000000000 ) ) ;
#59 = DIRECTION ( 'NONE',  ( 1.000000000000000000, 0.0000000000000000000, 0.0000000000000000000 ) ) ;
#60 = AXIS2_PLACEMENT_3D ( 'NONE', #48, #71, #226 ) ;
#61 = CARTESIAN_POINT ( 'NONE',  ( 3.071394887490858903E-13, 4.999999999999990230, 87.96824583655184426 ) ) ;
#62 = DATE_AND_TIME ( #126, #18 ) ;
#63 = VERTEX_POINT ( 'NONE', #83 ) ;
#64 = PERSON_AND_ORGANIZATION_ROLE ( 'creator' ) ;
#65 = ADVANCED_BREP_SHAPE_REPRESENTATION ( '964048', ( #178, #184, #102 ), #138 ) ;
#66 = ORIENTED_EDGE ( 'NONE', *, *, #279, .F. ) ;
#67 = SHAPE_DEFINITION_REPRESENTATION ( #186, #65 ) ;
#68 = FACE_OUTER_BOUND ( 'NONE', #225, .T. ) ;
#69 = CONICAL_SURFACE ( 'NONE', #60, 5.014999999999997016, 0.7853981633974420618 ) ;
#70 = APPROVAL_DATE_TIME ( #47, #20 ) ;
#71 = DIRECTION ( 'NONE',  ( 3.491481338843133355E-15, -1.224646799147353207E-16, 1.000000000000000000 ) ) ;
#72 = DIRECTION ( 'NONE',  ( 0.0000000000000000000, 1.000000000000000000, 0.0000000000000000000 ) ) ;
#73 = CC_DESIGN_DATE_AND_TIME_ASSIGNMENT ( #175, #246, ( #170 ) ) ;
#74 = ORIENTED_EDGE ( 'NONE', *, *, #37, .F. ) ;
#75 = CLOSED_SHELL ( 'NONE', ( #235, #39, #113, #31, #221, #281, #213 ) ) ;
#76 = DIRECTION ( 'NONE',  ( 3.491481338843133355E-15, -1.224646799147353207E-16, 1.000000000000000000 ) ) ;
#77 = CARTESIAN_POINT ( 'NONE',  ( 0.0000000000000000000, 0.0000000000000000000, 0.0000000000000000000 ) ) ;
#78 = DIRECTION ( 'NONE',  ( 0.0000000000000000000, 1.000000000000000000, 0.0000000000000000000 ) ) ;
#79 = DIRECTION ( 'NONE',  ( -3.491481338843133355E-15, 1.224646799147353207E-16, -1.000000000000000000 ) ) ;
#80 = CIRCLE ( 'NONE', #21, 5.014999999999997016 ) ;
#81 = CARTESIAN_POINT ( 'NONE',  ( 6.633814543801952113E-14, -2.326828918379970970E-15, 19.00000000000000000 ) ) ;
#82 = EDGE_CURVE ( 'NONE', #13, #13, #2, .T. ) ;
#83 = CARTESIAN_POINT ( 'NONE',  ( 3.037588764793525640E-13, 4.749999999999997335, 87.00000000000000000 ) ) ;
#84 = VERTEX_POINT ( 'NONE', #142 ) ;
#85 = AXIS2_PLACEMENT_3D ( 'NONE', #94, #204, #233 ) ;
#86 = EDGE_LOOP ( 'NONE', ( #156 ) ) ;
#87 = FACE_OUTER_BOUND ( 'NONE', #152, .T. ) ;
#88 = AXIS2_PLACEMENT_3D ( 'NONE', #251, #136, #78 ) ;
#89 = FACE_OUTER_BOUND ( 'NONE', #263, .T. ) ;
#90 = DIRECTION ( 'NONE',  ( -3.491481338843133355E-15, 1.224646799147353207E-16, -1.000000000000000000 ) ) ;
#91 = CARTESIAN_POINT ( 'NONE',  ( 6.633814543801952113E-14, 3.760647655024603928E-32, 19.00000000000000000 ) ) ;
#92 = PERSON ( 'UNSPECIFIED', 'UNSPECIFIED', 'UNSPECIFIED', ('UNSPECIFIED'), ('UNSPECIFIED'), ('UNSPECIFIED') ) ;
#93 = DIRECTION ( 'NONE',  ( 4.275831445896959482E-31, 1.000000000000000000, 1.224646799147353207E-16 ) ) ;
#94 = CARTESIAN_POINT ( 'NONE',  ( 6.633814543801952113E-14, -2.326828918379970970E-15, 19.00000000000000000 ) ) ;
#95 = DIRECTION ( 'NONE',  ( -3.491481338843133355E-15, 1.224646799147353207E-16, -1.000000000000000000 ) ) ;
#96 = DIRECTION ( 'NONE',  ( -3.491481338843133355E-15, 1.224646799147353207E-16, -1.000000000000000000 ) ) ;
#97 = CONICAL_SURFACE ( 'NONE', #241, 4.000000000000007994, 0.7853981633974479459 ) ;
#98 = PERSON_AND_ORGANIZATION ( #92, #255 ) ;
#99 = COORDINATED_UNIVERSAL_TIME_OFFSET ( 1, 0, .AHEAD. ) ;
#100 = AXIS2_PLACEMENT_3D ( 'NONE', #77, #95, #258 ) ;
#101 = EDGE_LOOP ( 'NONE', ( #151 ) ) ;
#102 = AXIS2_PLACEMENT_3D ( 'NONE', #146, #167, #59 ) ;
#103 = PERSON_AND_ORGANIZATION ( #92, #255 ) ;
#104 = CARTESIAN_POINT ( 'NONE',  ( 4.608755367272936534E-13, 4.999999999999991118, 132.0000000000000000 ) ) ;
#105 = APPROVAL_PERSON_ORGANIZATION ( #169, #245, #261 ) ;
#106 = CARTESIAN_POINT ( 'NONE',  ( 1.396592535537251370E-15, -4.898587196589405680E-17, 0.3999999999999994116 ) ) ;
#107 = CARTESIAN_POINT ( 'NONE',  ( 3.037588764793525640E-13, -1.040834085586084257E-14, 87.00000000000000000 ) ) ;
#108 = EDGE_CURVE ( 'NONE', #127, #127, #254, .T. ) ;
#109 = AXIS2_PLACEMENT_3D ( 'NONE', #14, #79, #227 ) ;
#110 = DIRECTION ( 'NONE',  ( 0.0000000000000000000, 1.000000000000000000, 0.0000000000000000000 ) ) ;
#111 = CYLINDRICAL_SURFACE ( 'NONE', #44, 4.750000000000000000 ) ;
#112 = CARTESIAN_POINT ( 'NONE',  ( 4.643670180661366731E-13, -1.628780242865979995E-14, 133.0000000000000000 ) ) ;
#113 = ADVANCED_FACE ( 'NONE', ( #89, #6 ), #111, .T. ) ;
#114 = AXIS2_PLACEMENT_3D ( 'NONE', #112, #185, #140 ) ;
#115 = CIRCLE ( 'NONE', #10, 4.750000000000007994 ) ;
#116 = DIRECTION ( 'NONE',  ( -4.275831445896958607E-31, -1.000000000000000000, -1.224646799147353207E-16 ) ) ;
#117 = CARTESIAN_POINT ( 'NONE',  ( 1.396592535537253539E-15, 5.014999999999997016, 0.4000000000000000222 ) ) ;
#118 = CC_DESIGN_PERSON_AND_ORGANIZATION_ASSIGNMENT ( #266, #23, ( #170 ) ) ;
#119 = DIRECTION ( 'NONE',  ( -3.491481338843133355E-15, 1.224646799147353207E-16, -1.000000000000000000 ) ) ;
#120 = CARTESIAN_POINT ( 'NONE',  ( 6.633814543801952113E-14, 3.760647655024603928E-32, 19.00000000000000000 ) ) ;
#121 = CIRCLE ( 'NONE', #88, 5.000000000000007994 ) ;
#122 = APPROVAL_STATUS ( 'not_yet_approved' ) ;
#123 =( NAMED_UNIT ( * ) SI_UNIT ( $, .STERADIAN. ) SOLID_ANGLE_UNIT ( ) );
#124 = AXIS2_PLACEMENT_3D ( 'NONE', #222, #220, #25 ) ;
#125 = LOCAL_TIME ( 9, 11, 5.000000000000000000, #217 ) ;
#126 = CALENDAR_DATE ( 2021, 2, 12 ) ;
#127 = VERTEX_POINT ( 'NONE', #16 ) ;
#128 = PRODUCT_DEFINITION ( 'UNKNOWN', '', #143, #157 ) ;
#129 = ORIENTED_EDGE ( 'NONE', *, *, #195, .F. ) ;
#130 = AXIS2_PLACEMENT_3D ( 'NONE', #132, #198, #110 ) ;
#131 = ORIENTED_EDGE ( 'NONE', *, *, #108, .F. ) ;
#132 = CARTESIAN_POINT ( 'NONE',  ( 3.071394887490858903E-13, -1.077300306903406976E-14, 87.96824583655184426 ) ) ;
#133 = EDGE_LOOP ( 'NONE', ( #270 ) ) ;
#134 = FACE_BOUND ( 'NONE', #267, .T. ) ;
#135 = UNCERTAINTY_MEASURE_WITH_UNIT (LENGTH_MEASURE( 1.000000000000000082E-05 ), #214, 'distance_accuracy_value', 'NONE');
#136 = DIRECTION ( 'NONE',  ( -3.491481338843133355E-15, 1.224646799147353207E-16, -1.000000000000000000 ) ) ;
#137 = DIRECTION ( 'NONE',  ( 3.491481338843133355E-15, -1.224646799147353207E-16, 1.000000000000000000 ) ) ;
#138 =( GEOMETRIC_REPRESENTATION_CONTEXT ( 3 ) GLOBAL_UNCERTAINTY_ASSIGNED_CONTEXT ( ( #135 ) ) GLOBAL_UNIT_ASSIGNED_CONTEXT ( ( #214, #15, #123 ) ) REPRESENTATION_CONTEXT ( 'NONE', 'WORKASPACE' ) );
#139 = CARTESIAN_POINT ( 'NONE',  ( -1.973296212281447179E-30, 6.921391396984474667E-32, -5.651744978065036711E-16 ) ) ;
#140 = DIRECTION ( 'NONE',  ( 0.0000000000000000000, 1.000000000000000000, 0.0000000000000000000 ) ) ;
#141 = PLANE ( 'NONE',  #250 ) ;
#142 = CARTESIAN_POINT ( 'NONE',  ( 6.633814543801952113E-14, 5.014999999999997016, 19.00000000000000000 ) ) ;
#143 = PRODUCT_DEFINITION_FORMATION_WITH_SPECIFIED_SOURCE ( 'ANY', '', #145, .NOT_KNOWN. ) ;
#144 = CARTESIAN_POINT ( 'NONE',  ( 0.0000000000000000000, 4.615000000000001990, 0.0000000000000000000 ) ) ;
#145 = PRODUCT ( '964048', '964048', '', ( #234 ) ) ;
#146 = CARTESIAN_POINT ( 'NONE',  ( 0.0000000000000000000, 0.0000000000000000000, 0.0000000000000000000 ) ) ;
#147 = VERTEX_POINT ( 'NONE', #238 ) ;
#148 = CLOSED_SHELL ( 'NONE', ( #207, #50, #190, #268 ) ) ;
#149 = LOCAL_TIME ( 9, 11, 5.000000000000000000, #155 ) ;
#150 = COORDINATED_UNIVERSAL_TIME_OFFSET ( 1, 0, .AHEAD. ) ;
#151 = ORIENTED_EDGE ( 'NONE', *, *, #82, .F. ) ;
#152 = EDGE_LOOP ( 'NONE', ( #173 ) ) ;
#153 = AXIS2_PLACEMENT_3D ( 'NONE', #81, #33, #34 ) ;
#154 = DIRECTION ( 'NONE',  ( -3.491481338843133355E-15, 1.224646799147353207E-16, -1.000000000000000000 ) ) ;
#155 = COORDINATED_UNIVERSAL_TIME_OFFSET ( 1, 0, .AHEAD. ) ;
#156 = ORIENTED_EDGE ( 'NONE', *, *, #230, .F. ) ;
#157 = DESIGN_CONTEXT ( 'detailed design', #203, 'design' ) ;
#158 = ORIENTED_EDGE ( 'NONE', *, *, #165, .F. ) ;
#159 = DIRECTION ( 'NONE',  ( -4.275831445896958607E-31, -1.000000000000000000, -1.224646799147353207E-16 ) ) ;
#160 = DIRECTION ( 'NONE',  ( 4.275831445896958607E-31, 1.000000000000000000, 1.224646799147352961E-16 ) ) ;
#161 = FACE_OUTER_BOUND ( 'NONE', #24, .T. ) ;
#162 = APPROVAL ( #122, 'UNSPECIFIED' ) ;
#163 = DIRECTION ( 'NONE',  ( -4.275831445896958607E-31, -1.000000000000000000, -1.224646799147353207E-16 ) ) ;
#164 = PLANE ( 'NONE',  #278 ) ;
#165 = EDGE_CURVE ( 'NONE', #189, #189, #205, .T. ) ;
#166 = CALENDAR_DATE ( 2021, 2, 12 ) ;
#167 = DIRECTION ( 'NONE',  ( 0.0000000000000000000, 0.0000000000000000000, 1.000000000000000000 ) ) ;
#168 = CC_DESIGN_PERSON_AND_ORGANIZATION_ASSIGNMENT ( #243, #26, ( #143 ) ) ;
#169 = PERSON_AND_ORGANIZATION ( #92, #255 ) ;
#170 = SECURITY_CLASSIFICATION ( '', '', #5 ) ;
#171 = APPROVAL_ROLE ( '' ) ;
#172 = ORIENTED_EDGE ( 'NONE', *, *, #279, .T. ) ;
#173 = ORIENTED_EDGE ( 'NONE', *, *, #37, .T. ) ;
#174 = LOCAL_TIME ( 9, 11, 5.000000000000000000, #150 ) ;
#175 = DATE_AND_TIME ( #49, #149 ) ;
#176 = EDGE_LOOP ( 'NONE', ( #202 ) ) ;
#177 = FACE_OUTER_BOUND ( 'NONE', #176, .T. ) ;
#178 = MANIFOLD_SOLID_BREP ( 'Corps-Déplacer/Copier1[1]', #75 ) ;
#179 = EDGE_CURVE ( 'NONE', #147, #147, #277, .T. ) ;
#180 = DIRECTION ( 'NONE',  ( 0.0000000000000000000, 1.000000000000000000, 0.0000000000000000000 ) ) ;
#181 = FACE_OUTER_BOUND ( 'NONE', #46, .T. ) ;
#182 = CC_DESIGN_PERSON_AND_ORGANIZATION_ASSIGNMENT ( #103, #36, ( #145 ) ) ;
#183 = FACE_OUTER_BOUND ( 'NONE', #86, .T. ) ;
#184 = MANIFOLD_SOLID_BREP ( 'Corps-Déplacer/Copier1[2]', #148 ) ;
#185 = DIRECTION ( 'NONE',  ( -3.491481338843133355E-15, 1.224646799147353207E-16, -1.000000000000000000 ) ) ;
#186 = PRODUCT_DEFINITION_SHAPE ( 'NONE', 'NONE',  #128 ) ;
#187 = CONICAL_SURFACE ( 'NONE', #124, 4.749999999999992006, 0.5235987755982920433 ) ;
#188 = DIRECTION ( 'NONE',  ( 3.491481338843133355E-15, -1.224646799147353207E-16, 1.000000000000000000 ) ) ;
#189 = VERTEX_POINT ( 'NONE', #236 ) ;
#190 = ADVANCED_FACE ( 'NONE', ( #181, #272 ), #256, .T. ) ;
#191 = COORDINATED_UNIVERSAL_TIME_OFFSET ( 1, 0, .AHEAD. ) ;
#192 = ORIENTED_EDGE ( 'NONE', *, *, #224, .T. ) ;
#193 = APPROVAL_ROLE ( '' ) ;
#194 = ORIENTED_EDGE ( 'NONE', *, *, #195, .T. ) ;
#195 = EDGE_CURVE ( 'NONE', #280, #280, #38, .T. ) ;
#196 = DIRECTION ( 'NONE',  ( 4.224372759373799926E-31, 1.000000000000000000, 1.189055224061869957E-16 ) ) ;
#197 = PERSON_AND_ORGANIZATION ( #92, #255 ) ;
#198 = DIRECTION ( 'NONE',  ( -3.491481338843133355E-15, 1.224646799147353207E-16, -1.000000000000000000 ) ) ;
#199 = AXIS2_PLACEMENT_3D ( 'NONE', #107, #90, #240 ) ;
#200 = ORIENTED_EDGE ( 'NONE', *, *, #224, .F. ) ;
#201 = PRODUCT_RELATED_PRODUCT_CATEGORY ( 'detail', '', ( #145 ) ) ;
#202 = ORIENTED_EDGE ( 'NONE', *, *, #179, .F. ) ;
#203 = APPLICATION_CONTEXT ( 'configuration controlled 3d designs of mechanical parts and assemblies' ) ;
#204 = DIRECTION ( 'NONE',  ( -3.491481338843133355E-15, 1.224646799147353207E-16, -1.000000000000000000 ) ) ;
#205 = CIRCLE ( 'NONE', #114, 4.000000000000007994 ) ;
#206 = CARTESIAN_POINT ( 'NONE',  ( 3.037588764793525640E-13, -1.065442715258197209E-14, 87.00000000000000000 ) ) ;
#207 = ADVANCED_FACE ( 'NONE', ( #57 ), #252, .F. ) ;
#208 = PLANE ( 'NONE',  #109 ) ;
#209 = LOCAL_TIME ( 9, 11, 5.000000000000000000, #191 ) ;
#210 = CYLINDRICAL_SURFACE ( 'NONE', #231, 5.000000000000004441 ) ;
#211 = DATE_AND_TIME ( #239, #174 ) ;
#212 = VERTEX_POINT ( 'NONE', #104 ) ;
#213 = ADVANCED_FACE ( 'NONE', ( #271 ), #208, .F. ) ;
#214 =( LENGTH_UNIT ( ) NAMED_UNIT ( * ) SI_UNIT ( .MILLI., .METRE. ) );
#215 = CC_DESIGN_APPROVAL ( #162, ( #128 ) ) ;
#216 = DATE_AND_TIME ( #166, #209 ) ;
#217 = COORDINATED_UNIVERSAL_TIME_OFFSET ( 1, 0, .AHEAD. ) ;
#218 = PERSON_AND_ORGANIZATION ( #92, #255 ) ;
#219 = CIRCLE ( 'NONE', #85, 5.014999999999999680 ) ;
#220 = DIRECTION ( 'NONE',  ( -3.491481338843133355E-15, 1.224646799147353207E-16, -1.000000000000000000 ) ) ;
#221 = ADVANCED_FACE ( 'NONE', ( #32, #228 ), #210, .T. ) ;
#222 = CARTESIAN_POINT ( 'NONE',  ( 6.794071255224665522E-14, -2.383039406032393581E-15, 19.45899346400577201 ) ) ;
#223 = PERSON_AND_ORGANIZATION_ROLE ( 'creator' ) ;
#224 = EDGE_CURVE ( 'NONE', #63, #63, #115, .T. ) ;
#225 = EDGE_LOOP ( 'NONE', ( #200 ) ) ;
#226 = DIRECTION ( 'NONE',  ( -4.224372759373799926E-31, -1.000000000000000000, -1.189055224061869957E-16 ) ) ;
#227 = DIRECTION ( 'NONE',  ( 4.275831445896958607E-31, 1.000000000000000000, 1.224646799147353207E-16 ) ) ;
#228 = FACE_OUTER_BOUND ( 'NONE', #22, .T. ) ;
#229 = AXIS2_PLACEMENT_3D ( 'NONE', #54, #137, #116 ) ;
#230 = EDGE_CURVE ( 'NONE', #84, #84, #219, .T. ) ;
#231 = AXIS2_PLACEMENT_3D ( 'NONE', #276, #96, #30 ) ;
#232 = DIRECTION ( 'NONE',  ( 0.0000000000000000000, 1.000000000000000000, 0.0000000000000000000 ) ) ;
#233 = DIRECTION ( 'NONE',  ( 0.0000000000000000000, 1.000000000000000000, 0.0000000000000000000 ) ) ;
#234 = MECHANICAL_CONTEXT ( 'NONE', #282, 'mechanical' ) ;
#235 = ADVANCED_FACE ( 'NONE', ( #274 ), #141, .F. ) ;
#236 = CARTESIAN_POINT ( 'NONE',  ( 4.643670180661366731E-13, 3.999999999999991562, 133.0000000000000000 ) ) ;
#237 = AXIS2_PLACEMENT_3D ( 'NONE', #139, #119, #160 ) ;
#238 = CARTESIAN_POINT ( 'NONE',  ( 6.633814543801952113E-14, 5.014999999999997016, 19.00000000000000000 ) ) ;
#239 = CALENDAR_DATE ( 2021, 2, 12 ) ;
#240 = DIRECTION ( 'NONE',  ( 4.275831445896958607E-31, 1.000000000000000000, 1.224646799147353207E-16 ) ) ;
#241 = AXIS2_PLACEMENT_3D ( 'NONE', #53, #8, #232 ) ;
#242 = ORIENTED_EDGE ( 'NONE', *, *, #82, .T. ) ;
#243 = PERSON_AND_ORGANIZATION ( #92, #255 ) ;
#244 = EDGE_LOOP ( 'NONE', ( #242 ) ) ;
#245 = APPROVAL ( #41, 'UNSPECIFIED' ) ;
#246 = DATE_TIME_ROLE ( 'classification_date' ) ;
#247 = FACE_OUTER_BOUND ( 'NONE', #244, .T. ) ;
#248 = CALENDAR_DATE ( 2021, 2, 12 ) ;
#249 = EDGE_LOOP ( 'NONE', ( #265 ) ) ;
#250 = AXIS2_PLACEMENT_3D ( 'NONE', #120, #188, #163 ) ;
#251 = CARTESIAN_POINT ( 'NONE',  ( 4.608755367272936534E-13, -1.616533774874506480E-14, 132.0000000000000000 ) ) ;
#252 = PLANE ( 'NONE',  #229 ) ;
#253 = FACE_BOUND ( 'NONE', #249, .T. ) ;
#254 = CIRCLE ( 'NONE', #9, 4.749999999999992006 ) ;
#255 = ORGANIZATION ( 'UNSPECIFIED', 'UNSPECIFIED', '' ) ;
#256 = CYLINDRICAL_SURFACE ( 'NONE', #100, 5.014999999999998792 ) ;
#257 = CC_DESIGN_PERSON_AND_ORGANIZATION_ASSIGNMENT ( #98, #64, ( #128 ) ) ;
#258 = DIRECTION ( 'NONE',  ( 4.275831445896957731E-31, 1.000000000000000000, 1.224646799147353207E-16 ) ) ;
#259 = TOROIDAL_SURFACE ( 'NONE', #199, 6.750000000000007994, 2.000000000000001776 ) ;
#260 = PERSON_AND_ORGANIZATION ( #92, #255 ) ;
#261 = APPROVAL_ROLE ( '' ) ;
#262 = APPROVAL_DATE_TIME ( #62, #162 ) ;
#263 = EDGE_LOOP ( 'NONE', ( #131 ) ) ;
#264 = APPROVAL_STATUS ( 'not_yet_approved' ) ;
#265 = ORIENTED_EDGE ( 'NONE', *, *, #165, .T. ) ;
#266 = PERSON_AND_ORGANIZATION ( #92, #255 ) ;
#267 = EDGE_LOOP ( 'NONE', ( #129 ) ) ;
#268 = ADVANCED_FACE ( 'NONE', ( #183 ), #164, .T. ) ;
#269 = ORIENTED_EDGE ( 'NONE', *, *, #230, .T. ) ;
#270 = ORIENTED_EDGE ( 'NONE', *, *, #108, .T. ) ;
#271 = FACE_OUTER_BOUND ( 'NONE', #283, .T. ) ;
#272 = FACE_OUTER_BOUND ( 'NONE', #52, .T. ) ;
#273 = DIRECTION ( 'NONE',  ( -3.491481338843133355E-15, 1.224646799147353207E-16, -1.000000000000000000 ) ) ;
#274 = FACE_OUTER_BOUND ( 'NONE', #28, .T. ) ;
#275 = CC_DESIGN_PERSON_AND_ORGANIZATION_ASSIGNMENT ( #218, #223, ( #143 ) ) ;
#276 = CARTESIAN_POINT ( 'NONE',  ( 0.0000000000000000000, 0.0000000000000000000, 0.0000000000000000000 ) ) ;
#277 = CIRCLE ( 'NONE', #153, 5.014999999999999680 ) ;
#278 = AXIS2_PLACEMENT_3D ( 'NONE', #91, #76, #159 ) ;
#279 = EDGE_CURVE ( 'NONE', #212, #212, #121, .T. ) ;
#280 = VERTEX_POINT ( 'NONE', #144 ) ;
#281 = ADVANCED_FACE ( 'NONE', ( #161, #253 ), #97, .T. ) ;
#282 = APPLICATION_CONTEXT ( 'configuration controlled 3d designs of mechanical parts and assemblies' ) ;
#283 = EDGE_LOOP ( 'NONE', ( #158 ) ) ;
ENDSEC;
END-ISO-10303-21;
