ISO-10303-21;
HEADER;
FILE_DESCRIPTION (( 'STEP AP203' ),
    '1' );
FILE_NAME ('964024.step',
    '2021-11-29T14:58:49',
    ( '' ),
    ( '' ),
    'SwSTEP 2.0',
    'SolidWorks 2019',
    '' );
FILE_SCHEMA (( 'CONFIG_CONTROL_DESIGN' ));
ENDSEC;

DATA;
#1 = DIRECTION ( 'NONE',  ( -3.491481338843133355E-15, 1.224646799147352961E-16, -1.000000000000000000 ) ) ;
#2 = DIRECTION ( 'NONE',  ( 4.275831445896957731E-31, 1.000000000000000000, 1.224646799147353207E-16 ) ) ;
#3 = CLOSED_SHELL ( 'NONE', ( #52, #254, #142, #163 ) ) ;
#4 = CONICAL_SURFACE ( 'NONE', #186, 1.499999999999997780, 0.1745329251994261477 ) ;
#5 = DIRECTION ( 'NONE',  ( 0.0000000000000000000, 1.000000000000000000, 0.0000000000000000000 ) ) ;
#6 = DATE_TIME_ROLE ( 'classification_date' ) ;
#7 = DIRECTION ( 'NONE',  ( 0.0000000000000000000, 1.000000000000000000, 0.0000000000000000000 ) ) ;
#8 = ADVANCED_FACE ( 'NONE', ( #271 ), #59, .F. ) ;
#9 = DIRECTION ( 'NONE',  ( 4.275831445896957731E-31, 1.000000000000000000, 1.224646799147352961E-16 ) ) ;
#10 = VERTEX_POINT ( 'NONE', #184 ) ;
#11 = CARTESIAN_POINT ( 'NONE',  ( 2.094888803305880013E-14, 4.787983106147966920E-33, 6.000000000000000000 ) ) ;
#12 = CIRCLE ( 'NONE', #49, 0.6384999999999999565 ) ;
#13 = AXIS2_PLACEMENT_3D ( 'NONE', #66, #286, #7 ) ;
#14 = FACE_OUTER_BOUND ( 'NONE', #81, .T. ) ;
#15 = VERTEX_POINT ( 'NONE', #242 ) ;
#16 = ORIENTED_EDGE ( 'NONE', *, *, #33, .T. ) ;
#17 = ORIENTED_EDGE ( 'NONE', *, *, #196, .T. ) ;
#18 = PERSON ( 'UNSPECIFIED', 'UNSPECIFIED', 'UNSPECIFIED', ('UNSPECIFIED'), ('UNSPECIFIED'), ('UNSPECIFIED') ) ;
#19 = PERSON_AND_ORGANIZATION ( #18, #34 ) ;
#20 = AXIS2_PLACEMENT_3D ( 'NONE', #182, #113, #282 ) ;
#21 = CARTESIAN_POINT ( 'NONE',  ( 0.0000000000000000000, 0.0000000000000000000, 0.0000000000000000000 ) ) ;
#22 = MECHANICAL_CONTEXT ( 'NONE', #119, 'mechanical' ) ;
#23 = DIRECTION ( 'NONE',  ( 3.491481338843133355E-15, -1.224646799147352961E-16, 1.000000000000000000 ) ) ;
#24 = DIRECTION ( 'NONE',  ( 0.0000000000000000000, 1.000000000000000000, 0.0000000000000000000 ) ) ;
#25 = CARTESIAN_POINT ( 'NONE',  ( 6.530633275158628629E-14, -2.290637801168420624E-15, 18.70447710117931450 ) ) ;
#26 = PERSON_AND_ORGANIZATION_ROLE ( 'classification_officer' ) ;
#27 = DIRECTION ( 'NONE',  ( 4.275831445896957731E-31, 1.000000000000000000, 1.224646799147352961E-16 ) ) ;
#28 = CC_DESIGN_APPROVAL ( #97, ( #246 ) ) ;
#29 = CARTESIAN_POINT ( 'NONE',  ( 1.326762908760390423E-13, 8.998558695971099120E-33, 38.00000000000000000 ) ) ;
#30 = CARTESIAN_POINT ( 'NONE',  ( 4.660183614865709749E-14, 0.5553844939755799848, 13.34729635533384773 ) ) ;
#31 = FACE_OUTER_BOUND ( 'NONE', #214, .T. ) ;
#32 = DIRECTION ( 'NONE',  ( -3.491481338843133355E-15, 1.224646799147352961E-16, -1.000000000000000000 ) ) ;
#33 = EDGE_CURVE ( 'NONE', #227, #227, #268, .T. ) ;
#34 = ORGANIZATION ( 'UNSPECIFIED', 'UNSPECIFIED', '' ) ;
#35 = DIRECTION ( 'NONE',  ( 0.0000000000000000000, 1.000000000000000000, 0.0000000000000000000 ) ) ;
#36 =( NAMED_UNIT ( * ) PLANE_ANGLE_UNIT ( ) SI_UNIT ( $, .RADIAN. ) );
#37 = EDGE_CURVE ( 'NONE', #71, #71, #12, .T. ) ;
#38 = CC_DESIGN_APPROVAL ( #61, ( #238 ) ) ;
#39 = CALENDAR_DATE ( 2021, 29, 11 ) ;
#40 = CIRCLE ( 'NONE', #139, 0.6384999999999999565 ) ;
#41 = CIRCLE ( 'NONE', #258, 0.6384999999999991793 ) ;
#42 = APPROVAL_DATE_TIME ( #281, #75 ) ;
#43 = APPROVAL_STATUS ( 'not_yet_approved' ) ;
#44 = CARTESIAN_POINT ( 'NONE',  ( 0.0000000000000000000, 0.0000000000000000000, 0.0000000000000000000 ) ) ;
#45 = PERSON_AND_ORGANIZATION ( #18, #34 ) ;
#46 = DIRECTION ( 'NONE',  ( -4.275831445896957731E-31, -1.000000000000000000, -1.224646799147352961E-16 ) ) ;
#47 = CARTESIAN_POINT ( 'NONE',  ( -3.059323182322273862E-31, 1.073066122710442841E-32, -8.762249845894778517E-17 ) ) ;
#48 = DIRECTION ( 'NONE',  ( -3.491481338843133355E-15, 1.224646799147352961E-16, -1.000000000000000000 ) ) ;
#49 = AXIS2_PLACEMENT_3D ( 'NONE', #130, #237, #35 ) ;
#50 = CARTESIAN_POINT ( 'NONE',  ( 1.326762908760390423E-13, -4.653657836759941152E-15, 38.00000000000000000 ) ) ;
#51 = LOCAL_TIME ( 15, 58, 49.00000000000000000, #134 ) ;
#52 = ADVANCED_FACE ( 'NONE', ( #118 ), #83, .F. ) ;
#53 = DIRECTION ( 'NONE',  ( -3.491481338843133355E-15, 1.224646799147352961E-16, -1.000000000000000000 ) ) ;
#54 = APPLICATION_CONTEXT ( 'configuration controlled 3d designs of mechanical parts and assemblies' ) ;
#55 = DIRECTION ( 'NONE',  ( -3.491481338843133355E-15, 1.224646799147352961E-16, -1.000000000000000000 ) ) ;
#56 = AXIS2_PLACEMENT_3D ( 'NONE', #132, #161, #24 ) ;
#57 = CC_DESIGN_APPROVAL ( #75, ( #62 ) ) ;
#58 = EDGE_LOOP ( 'NONE', ( #16 ) ) ;
#59 = PLANE ( 'NONE',  #100 ) ;
#60 = DESIGN_CONTEXT ( 'detailed design', #54, 'design' ) ;
#61 = APPROVAL ( #122, 'UNSPECIFIED' ) ;
#62 = SECURITY_CLASSIFICATION ( '', '', #255 ) ;
#63 = COORDINATED_UNIVERSAL_TIME_OFFSET ( 1, 0, .AHEAD. ) ;
#64 = VERTEX_POINT ( 'NONE', #125 ) ;
#65 = APPROVAL_PERSON_ORGANIZATION ( #45, #75, #252 ) ;
#66 = CARTESIAN_POINT ( 'NONE',  ( 2.163527055179379803E-14, -7.588631374074676968E-16, 6.196587766659072294 ) ) ;
#67 = FACE_OUTER_BOUND ( 'NONE', #143, .T. ) ;
#68 = FACE_OUTER_BOUND ( 'NONE', #128, .T. ) ;
#69 = DIRECTION ( 'NONE',  ( -3.491481338843133355E-15, 1.224646799147352961E-16, -1.000000000000000000 ) ) ;
#70 = DIRECTION ( 'NONE',  ( -3.491481338843133355E-15, 1.224646799147352961E-16, -1.000000000000000000 ) ) ;
#71 = VERTEX_POINT ( 'NONE', #206 ) ;
#72 = CC_DESIGN_DATE_AND_TIME_ASSIGNMENT ( #277, #148, ( #238 ) ) ;
#73 = FACE_OUTER_BOUND ( 'NONE', #80, .T. ) ;
#74 = ORIENTED_EDGE ( 'NONE', *, *, #274, .T. ) ;
#75 = APPROVAL ( #43, 'UNSPECIFIED' ) ;
#76 = ORIENTED_EDGE ( 'NONE', *, *, #37, .T. ) ;
#77 = LOCAL_TIME ( 15, 58, 49.00000000000000000, #155 ) ;
#78 = PERSON_AND_ORGANIZATION ( #18, #34 ) ;
#79 = APPLICATION_PROTOCOL_DEFINITION ( 'international standard', 'config_control_design', 1994, #54 ) ;
#80 = EDGE_LOOP ( 'NONE', ( #150 ) ) ;
#81 = EDGE_LOOP ( 'NONE', ( #265 ) ) ;
#82 = CALENDAR_DATE ( 2021, 29, 11 ) ;
#83 = PLANE ( 'NONE',  #235 ) ;
#84 = ORIENTED_EDGE ( 'NONE', *, *, #260, .T. ) ;
#85 = PERSON_AND_ORGANIZATION ( #18, #34 ) ;
#86 = ADVANCED_FACE ( 'NONE', ( #14, #73 ), #210, .T. ) ;
#87 = DIRECTION ( 'NONE',  ( 3.491481338843133355E-15, -1.224646799147352961E-16, 1.000000000000000000 ) ) ;
#88 = AXIS2_PLACEMENT_3D ( 'NONE', #29, #48, #136 ) ;
#89 = AXIS2_PLACEMENT_3D ( 'NONE', #50, #224, #208 ) ;
#90 = CARTESIAN_POINT ( 'NONE',  ( 6.530633275158628629E-14, -2.290637801168420624E-15, 18.70447710117931450 ) ) ;
#91 = EDGE_LOOP ( 'NONE', ( #211 ) ) ;
#92 = CARTESIAN_POINT ( 'NONE',  ( 1.326762908760390423E-13, -4.653657836759941152E-15, 38.00000000000000000 ) ) ;
#93 = FACE_OUTER_BOUND ( 'NONE', #99, .T. ) ;
#94 = EDGE_CURVE ( 'NONE', #10, #10, #40, .T. ) ;
#95 = ADVANCED_BREP_SHAPE_REPRESENTATION ( '964024', ( #248, #243, #251 ), #110 ) ;
#96 = DIRECTION ( 'NONE',  ( -3.491481338843133355E-15, 1.224646799147352961E-16, -1.000000000000000000 ) ) ;
#97 = APPROVAL ( #190, 'UNSPECIFIED' ) ;
#98 = DIRECTION ( 'NONE',  ( 3.491481338843133355E-15, -1.224646799147352961E-16, 1.000000000000000000 ) ) ;
#99 = EDGE_LOOP ( 'NONE', ( #167 ) ) ;
#100 = AXIS2_PLACEMENT_3D ( 'NONE', #220, #23, #244 ) ;
#101 = ADVANCED_FACE ( 'NONE', ( #31 ), #234, .F. ) ;
#102 = ORIENTED_EDGE ( 'NONE', *, *, #33, .F. ) ;
#103 = CIRCLE ( 'NONE', #89, 1.200000000000003286 ) ;
#104 = ORIENTED_EDGE ( 'NONE', *, *, #267, .T. ) ;
#105 = DIRECTION ( 'NONE',  ( 0.0000000000000000000, 0.0000000000000000000, 1.000000000000000000 ) ) ;
#106 = VERTEX_POINT ( 'NONE', #221 ) ;
#107 = CARTESIAN_POINT ( 'NONE',  ( 1.326762908760390423E-13, 1.199999999999998845, 38.00000000000000000 ) ) ;
#108 = DATE_AND_TIME ( #203, #77 ) ;
#109 = CARTESIAN_POINT ( 'NONE',  ( 8.728703347107833388E-16, -3.061616997868382402E-17, 0.2500000000000000000 ) ) ;
#110 =( GEOMETRIC_REPRESENTATION_CONTEXT ( 3 ) GLOBAL_UNCERTAINTY_ASSIGNED_CONTEXT ( ( #123 ) ) GLOBAL_UNIT_ASSIGNED_CONTEXT ( ( #172, #36, #197 ) ) REPRESENTATION_CONTEXT ( 'NONE', 'WORKASPACE' ) );
#111 = PERSON_AND_ORGANIZATION ( #18, #34 ) ;
#112 = CARTESIAN_POINT ( 'NONE',  ( 0.0000000000000000000, 0.0000000000000000000, 0.0000000000000000000 ) ) ;
#113 = DIRECTION ( 'NONE',  ( -3.491481338843133355E-15, 1.224646799147352961E-16, -1.000000000000000000 ) ) ;
#114 = FACE_OUTER_BOUND ( 'NONE', #193, .T. ) ;
#115 = EDGE_LOOP ( 'NONE', ( #17 ) ) ;
#116 = AXIS2_PLACEMENT_3D ( 'NONE', #256, #55, #9 ) ;
#117 = CARTESIAN_POINT ( 'NONE',  ( 4.538925740496073362E-14, 0.5249999999999985789, 13.00000000000000000 ) ) ;
#118 = FACE_OUTER_BOUND ( 'NONE', #189, .T. ) ;
#119 = APPLICATION_CONTEXT ( 'configuration controlled 3d designs of mechanical parts and assemblies' ) ;
#120 = AXIS2_PLACEMENT_3D ( 'NONE', #109, #262, #133 ) ;
#121 = EDGE_LOOP ( 'NONE', ( #164 ) ) ;
#122 = APPROVAL_STATUS ( 'not_yet_approved' ) ;
#123 = UNCERTAINTY_MEASURE_WITH_UNIT (LENGTH_MEASURE( 1.000000000000000082E-05 ), #172, 'distance_accuracy_value', 'NONE');
#124 = CC_DESIGN_DATE_AND_TIME_ASSIGNMENT ( #108, #6, ( #62 ) ) ;
#125 = CARTESIAN_POINT ( 'NONE',  ( 6.530633275158628629E-14, 1.499999999999995559, 18.70447710117931450 ) ) ;
#126 = DATE_AND_TIME ( #39, #146 ) ;
#127 = ORIENTED_EDGE ( 'NONE', *, *, #260, .F. ) ;
#128 = EDGE_LOOP ( 'NONE', ( #280 ) ) ;
#129 = CC_DESIGN_PERSON_AND_ORGANIZATION_ASSIGNMENT ( #111, #26, ( #62 ) ) ;
#130 = CARTESIAN_POINT ( 'NONE',  ( 2.094888803305880013E-14, -7.347880794884118750E-16, 6.000000000000000000 ) ) ;
#131 = CIRCLE ( 'NONE', #20, 1.500000000000003331 ) ;
#132 = CARTESIAN_POINT ( 'NONE',  ( 4.538925740496073362E-14, -1.592040838891558701E-15, 13.00000000000000000 ) ) ;
#133 = DIRECTION ( 'NONE',  ( -3.016335073433419467E-31, -1.000000000000000000, -8.490228445462066001E-17 ) ) ;
#134 = COORDINATED_UNIVERSAL_TIME_OFFSET ( 1, 0, .AHEAD. ) ;
#135 = DIRECTION ( 'NONE',  ( 0.0000000000000000000, 1.000000000000000000, 0.0000000000000000000 ) ) ;
#136 = DIRECTION ( 'NONE',  ( 4.275831445896957731E-31, 1.000000000000000000, 1.224646799147352961E-16 ) ) ;
#137 = FACE_OUTER_BOUND ( 'NONE', #259, .T. ) ;
#138 = DIRECTION ( 'NONE',  ( 0.0000000000000000000, 1.000000000000000000, 0.0000000000000000000 ) ) ;
#139 = AXIS2_PLACEMENT_3D ( 'NONE', #229, #69, #198 ) ;
#140 = CONICAL_SURFACE ( 'NONE', #213, 1.200000000000003286, 0.7853981633974453924 ) ;
#141 = PRODUCT ( '964024', '964024', '', ( #22 ) ) ;
#142 = ADVANCED_FACE ( 'NONE', ( #285, #223 ), #287, .T. ) ;
#143 = EDGE_LOOP ( 'NONE', ( #212 ) ) ;
#144 = VERTEX_POINT ( 'NONE', #117 ) ;
#145 = CALENDAR_DATE ( 2021, 29, 11 ) ;
#146 = LOCAL_TIME ( 15, 58, 49.00000000000000000, #151 ) ;
#147 = ADVANCED_FACE ( 'NONE', ( #263, #183 ), #209, .F. ) ;
#148 = DATE_TIME_ROLE ( 'creation_date' ) ;
#149 = ADVANCED_FACE ( 'NONE', ( #93, #303 ), #162, .T. ) ;
#150 = ORIENTED_EDGE ( 'NONE', *, *, #241, .T. ) ;
#151 = COORDINATED_UNIVERSAL_TIME_OFFSET ( 1, 0, .AHEAD. ) ;
#152 = AXIS2_PLACEMENT_3D ( 'NONE', #156, #70, #27 ) ;
#153 = AXIS2_PLACEMENT_3D ( 'NONE', #47, #199, #230 ) ;
#154 = CARTESIAN_POINT ( 'NONE',  ( 4.660183614865709749E-14, -1.634572375883072611E-15, 13.34729635533384773 ) ) ;
#155 = COORDINATED_UNIVERSAL_TIME_OFFSET ( 1, 0, .AHEAD. ) ;
#156 = CARTESIAN_POINT ( 'NONE',  ( 0.0000000000000000000, 0.0000000000000000000, 0.0000000000000000000 ) ) ;
#157 = DIRECTION ( 'NONE',  ( -3.491481338843133355E-15, 1.224646799147352961E-16, -1.000000000000000000 ) ) ;
#158 = ADVANCED_FACE ( 'NONE', ( #204, #114 ), #4, .T. ) ;
#159 = DIRECTION ( 'NONE',  ( 3.491481338843133355E-15, -1.224646799147352961E-16, 1.000000000000000000 ) ) ;
#160 = CIRCLE ( 'NONE', #222, 0.5249999999999992450 ) ;
#161 = DIRECTION ( 'NONE',  ( -3.491481338843133355E-15, 1.224646799147352961E-16, -1.000000000000000000 ) ) ;
#162 = CYLINDRICAL_SURFACE ( 'NONE', #171, 1.500000000000000444 ) ;
#163 = ADVANCED_FACE ( 'NONE', ( #137 ), #257, .T. ) ;
#164 = ORIENTED_EDGE ( 'NONE', *, *, #216, .F. ) ;
#165 = APPROVAL_PERSON_ORGANIZATION ( #175, #61, #302 ) ;
#166 = CC_DESIGN_PERSON_AND_ORGANIZATION_ASSIGNMENT ( #219, #249, ( #246 ) ) ;
#167 = ORIENTED_EDGE ( 'NONE', *, *, #267, .F. ) ;
#168 = EDGE_LOOP ( 'NONE', ( #84 ) ) ;
#169 = ORIENTED_EDGE ( 'NONE', *, *, #94, .T. ) ;
#170 = VERTEX_POINT ( 'NONE', #269 ) ;
#171 = AXIS2_PLACEMENT_3D ( 'NONE', #112, #201, #2 ) ;
#172 =( LENGTH_UNIT ( ) NAMED_UNIT ( * ) SI_UNIT ( .MILLI., .METRE. ) );
#173 = DATE_AND_TIME ( #145, #191 ) ;
#174 = CIRCLE ( 'NONE', #56, 0.5250000000000001332 ) ;
#175 = PERSON_AND_ORGANIZATION ( #18, #34 ) ;
#176 = ADVANCED_FACE ( 'NONE', ( #68, #187 ), #140, .T. ) ;
#177 = PERSON_AND_ORGANIZATION_ROLE ( 'creator' ) ;
#178 = CARTESIAN_POINT ( 'NONE',  ( 2.163527055179379803E-14, -7.588631374074676968E-16, 6.196587766659072294 ) ) ;
#179 = CONICAL_SURFACE ( 'NONE', #120, 0.6384999999999991793, 0.5235987755982928205 ) ;
#180 = FACE_OUTER_BOUND ( 'NONE', #192, .T. ) ;
#181 = ORIENTED_EDGE ( 'NONE', *, *, #200, .T. ) ;
#182 = CARTESIAN_POINT ( 'NONE',  ( 1.316288464743861212E-13, -4.616918432785520292E-15, 37.69999999999999574 ) ) ;
#183 = FACE_OUTER_BOUND ( 'NONE', #58, .T. ) ;
#184 = CARTESIAN_POINT ( 'NONE',  ( 2.094888803305880013E-14, 0.6384999999999991793, 6.000000000000000000 ) ) ;
#185 = CC_DESIGN_PERSON_AND_ORGANIZATION_ASSIGNMENT ( #78, #272, ( #246 ) ) ;
#186 = AXIS2_PLACEMENT_3D ( 'NONE', #90, #159, #207 ) ;
#187 = FACE_BOUND ( 'NONE', #168, .T. ) ;
#188 = CARTESIAN_POINT ( 'NONE',  ( -1.529661591161136931E-31, 5.365330613552214203E-33, -4.381124922947389259E-17 ) ) ;
#189 = EDGE_LOOP ( 'NONE', ( #74 ) ) ;
#190 = APPROVAL_STATUS ( 'not_yet_approved' ) ;
#191 = LOCAL_TIME ( 15, 58, 49.00000000000000000, #273 ) ;
#192 = EDGE_LOOP ( 'NONE', ( #290 ) ) ;
#193 = EDGE_LOOP ( 'NONE', ( #104 ) ) ;
#194 = DIRECTION ( 'NONE',  ( 1.000000000000000000, 0.0000000000000000000, 0.0000000000000000000 ) ) ;
#195 = CIRCLE ( 'NONE', #218, 1.499999999999997780 ) ;
#196 = EDGE_CURVE ( 'NONE', #15, #15, #160, .T. ) ;
#197 =( NAMED_UNIT ( * ) SI_UNIT ( $, .STERADIAN. ) SOLID_ANGLE_UNIT ( ) );
#198 = DIRECTION ( 'NONE',  ( 0.0000000000000000000, 1.000000000000000000, 0.0000000000000000000 ) ) ;
#199 = DIRECTION ( 'NONE',  ( -3.491481338843133355E-15, 1.224646799147352961E-16, -1.000000000000000000 ) ) ;
#200 = EDGE_CURVE ( 'NONE', #239, #239, #131, .T. ) ;
#201 = DIRECTION ( 'NONE',  ( -3.491481338843133355E-15, 1.224646799147352961E-16, -1.000000000000000000 ) ) ;
#202 = LOCAL_TIME ( 15, 58, 49.00000000000000000, #63 ) ;
#203 = CALENDAR_DATE ( 2021, 29, 11 ) ;
#204 = FACE_BOUND ( 'NONE', #240, .T. ) ;
#205 = DIRECTION ( 'NONE',  ( -3.491481338843133355E-15, 1.224646799147352961E-16, -1.000000000000000000 ) ) ;
#206 = CARTESIAN_POINT ( 'NONE',  ( 2.094888803305880013E-14, 0.6384999999999991793, 6.000000000000000000 ) ) ;
#207 = DIRECTION ( 'NONE',  ( 0.0000000000000000000, -1.000000000000000000, 0.0000000000000000000 ) ) ;
#208 = DIRECTION ( 'NONE',  ( 0.0000000000000000000, 1.000000000000000000, 0.0000000000000000000 ) ) ;
#209 = TOROIDAL_SURFACE ( 'NONE', #116, 2.525000000000000355, 2.000000000000000000 ) ;
#210 = CYLINDRICAL_SURFACE ( 'NONE', #283, 0.5249999999999996891 ) ;
#211 = ORIENTED_EDGE ( 'NONE', *, *, #274, .F. ) ;
#212 = ORIENTED_EDGE ( 'NONE', *, *, #37, .F. ) ;
#213 = AXIS2_PLACEMENT_3D ( 'NONE', #92, #157, #138 ) ;
#214 = EDGE_LOOP ( 'NONE', ( #127 ) ) ;
#215 = CC_DESIGN_PERSON_AND_ORGANIZATION_ASSIGNMENT ( #19, #177, ( #238 ) ) ;
#216 = EDGE_CURVE ( 'NONE', #170, #170, #41, .T. ) ;
#217 = ORIENTED_EDGE ( 'NONE', *, *, #94, .F. ) ;
#218 = AXIS2_PLACEMENT_3D ( 'NONE', #25, #32, #288 ) ;
#219 = PERSON_AND_ORGANIZATION ( #18, #34 ) ;
#220 = CARTESIAN_POINT ( 'NONE',  ( 2.094888803305880013E-14, 4.787983106147966920E-33, 6.000000000000000000 ) ) ;
#221 = CARTESIAN_POINT ( 'NONE',  ( -9.463679131915802403E-32, 0.4941624327025946894, -2.710505431213761085E-17 ) ) ;
#222 = AXIS2_PLACEMENT_3D ( 'NONE', #178, #96, #135 ) ;
#223 = FACE_OUTER_BOUND ( 'NONE', #296, .T. ) ;
#224 = DIRECTION ( 'NONE',  ( -3.491481338843133355E-15, 1.224646799147352961E-16, -1.000000000000000000 ) ) ;
#225 = SHAPE_DEFINITION_REPRESENTATION ( #266, #95 ) ;
#226 = CARTESIAN_POINT ( 'NONE',  ( 8.728703347107833388E-16, -3.061616997868382402E-17, 0.2500000000000000000 ) ) ;
#227 = VERTEX_POINT ( 'NONE', #30 ) ;
#228 = CLOSED_SHELL ( 'NONE', ( #8, #233, #86, #147, #158, #149, #176, #101 ) ) ;
#229 = CARTESIAN_POINT ( 'NONE',  ( 2.094888803305880013E-14, -7.347880794884118750E-16, 6.000000000000000000 ) ) ;
#230 = DIRECTION ( 'NONE',  ( 4.275831445896957731E-31, 1.000000000000000000, 1.224646799147352961E-16 ) ) ;
#231 = ORIENTED_EDGE ( 'NONE', *, *, #241, .F. ) ;
#232 = DIRECTION ( 'NONE',  ( 4.275831445896957731E-31, 1.000000000000000000, 1.224646799147352961E-16 ) ) ;
#233 = ADVANCED_FACE ( 'NONE', ( #67, #253 ), #236, .T. ) ;
#234 = PLANE ( 'NONE',  #88 ) ;
#235 = AXIS2_PLACEMENT_3D ( 'NONE', #188, #98, #291 ) ;
#236 = CONICAL_SURFACE ( 'NONE', #13, 0.5249999999999992450, 0.5235987755982920433 ) ;
#237 = DIRECTION ( 'NONE',  ( -3.491481338843133355E-15, 1.224646799147352961E-16, -1.000000000000000000 ) ) ;
#238 = PRODUCT_DEFINITION ( 'UNKNOWN', '', #246, #60 ) ;
#239 = VERTEX_POINT ( 'NONE', #294 ) ;
#240 = EDGE_LOOP ( 'NONE', ( #102 ) ) ;
#241 = EDGE_CURVE ( 'NONE', #144, #144, #174, .T. ) ;
#242 = CARTESIAN_POINT ( 'NONE',  ( 2.163527055179379803E-14, 0.5249999999999984679, 6.196587766659072294 ) ) ;
#243 = MANIFOLD_SOLID_BREP ( 'Corps-Déplacer/Copier1[2]', #3 ) ;
#244 = DIRECTION ( 'NONE',  ( -4.275831445896957731E-31, -1.000000000000000000, -1.224646799147352961E-16 ) ) ;
#245 = VERTEX_POINT ( 'NONE', #107 ) ;
#246 = PRODUCT_DEFINITION_FORMATION_WITH_SPECIFIED_SOURCE ( 'ANY', '', #141, .NOT_KNOWN. ) ;
#247 = APPROVAL_ROLE ( '' ) ;
#248 = MANIFOLD_SOLID_BREP ( 'Corps-Déplacer/Copier1[1]', #228 ) ;
#249 = PERSON_AND_ORGANIZATION_ROLE ( 'design_supplier' ) ;
#250 = CALENDAR_DATE ( 2021, 29, 11 ) ;
#251 = AXIS2_PLACEMENT_3D ( 'NONE', #21, #105, #194 ) ;
#252 = APPROVAL_ROLE ( '' ) ;
#253 = FACE_BOUND ( 'NONE', #115, .T. ) ;
#254 = ADVANCED_FACE ( 'NONE', ( #261, #180 ), #179, .T. ) ;
#255 = SECURITY_CLASSIFICATION_LEVEL ( 'unclassified' ) ;
#256 = CARTESIAN_POINT ( 'NONE',  ( 4.538925740496073362E-14, -1.734723475976807094E-15, 13.00000000000000000 ) ) ;
#257 = PLANE ( 'NONE',  #297 ) ;
#258 = AXIS2_PLACEMENT_3D ( 'NONE', #226, #205, #284 ) ;
#259 = EDGE_LOOP ( 'NONE', ( #217 ) ) ;
#260 = EDGE_CURVE ( 'NONE', #245, #245, #103, .T. ) ;
#261 = FACE_BOUND ( 'NONE', #91, .T. ) ;
#262 = DIRECTION ( 'NONE',  ( 3.491481338843133355E-15, -1.224646799147352961E-16, 1.000000000000000000 ) ) ;
#263 = FACE_OUTER_BOUND ( 'NONE', #295, .T. ) ;
#264 = CIRCLE ( 'NONE', #153, 0.4941624327025946894 ) ;
#265 = ORIENTED_EDGE ( 'NONE', *, *, #196, .F. ) ;
#266 = PRODUCT_DEFINITION_SHAPE ( 'NONE', 'NONE',  #238 ) ;
#267 = EDGE_CURVE ( 'NONE', #64, #64, #195, .T. ) ;
#268 = CIRCLE ( 'NONE', #275, 0.5553844939755816501 ) ;
#269 = CARTESIAN_POINT ( 'NONE',  ( 8.728703347107835360E-16, 0.6384999999999991793, 0.2500000000000000555 ) ) ;
#270 = CC_DESIGN_SECURITY_CLASSIFICATION ( #62, ( #246 ) ) ;
#271 = FACE_OUTER_BOUND ( 'NONE', #301, .T. ) ;
#272 = PERSON_AND_ORGANIZATION_ROLE ( 'creator' ) ;
#273 = COORDINATED_UNIVERSAL_TIME_OFFSET ( 1, 0, .AHEAD. ) ;
#274 = EDGE_CURVE ( 'NONE', #106, #106, #264, .T. ) ;
#275 = AXIS2_PLACEMENT_3D ( 'NONE', #154, #1, #5 ) ;
#276 = APPROVAL_DATE_TIME ( #173, #61 ) ;
#277 = DATE_AND_TIME ( #82, #202 ) ;
#278 = PRODUCT_RELATED_PRODUCT_CATEGORY ( 'detail', '', ( #141 ) ) ;
#279 = PERSON_AND_ORGANIZATION ( #18, #34 ) ;
#280 = ORIENTED_EDGE ( 'NONE', *, *, #200, .F. ) ;
#281 = DATE_AND_TIME ( #250, #51 ) ;
#282 = DIRECTION ( 'NONE',  ( 0.0000000000000000000, 1.000000000000000000, 0.0000000000000000000 ) ) ;
#283 = AXIS2_PLACEMENT_3D ( 'NONE', #44, #53, #232 ) ;
#284 = DIRECTION ( 'NONE',  ( 3.016335073433419467E-31, 1.000000000000000000, 8.490228445462066001E-17 ) ) ;
#285 = FACE_OUTER_BOUND ( 'NONE', #121, .T. ) ;
#286 = DIRECTION ( 'NONE',  ( -3.491481338843133355E-15, 1.224646799147352961E-16, -1.000000000000000000 ) ) ;
#287 = CYLINDRICAL_SURFACE ( 'NONE', #152, 0.6384999999999995124 ) ;
#288 = DIRECTION ( 'NONE',  ( 0.0000000000000000000, 1.000000000000000000, 0.0000000000000000000 ) ) ;
#289 = CC_DESIGN_PERSON_AND_ORGANIZATION_ASSIGNMENT ( #85, #300, ( #141 ) ) ;
#290 = ORIENTED_EDGE ( 'NONE', *, *, #216, .T. ) ;
#291 = DIRECTION ( 'NONE',  ( -4.275831445896957731E-31, -1.000000000000000000, -1.224646799147352961E-16 ) ) ;
#292 = APPROVAL_PERSON_ORGANIZATION ( #279, #97, #247 ) ;
#293 = EDGE_LOOP ( 'NONE', ( #181 ) ) ;
#294 = CARTESIAN_POINT ( 'NONE',  ( 1.316288464743861212E-13, 1.499999999999998668, 37.69999999999999574 ) ) ;
#295 = EDGE_LOOP ( 'NONE', ( #231 ) ) ;
#296 = EDGE_LOOP ( 'NONE', ( #169 ) ) ;
#297 = AXIS2_PLACEMENT_3D ( 'NONE', #11, #87, #46 ) ;
#298 = APPROVAL_DATE_TIME ( #126, #97 ) ;
#299 = APPLICATION_PROTOCOL_DEFINITION ( 'international standard', 'config_control_design', 1994, #119 ) ;
#300 = PERSON_AND_ORGANIZATION_ROLE ( 'design_owner' ) ;
#301 = EDGE_LOOP ( 'NONE', ( #76 ) ) ;
#302 = APPROVAL_ROLE ( '' ) ;
#303 = FACE_OUTER_BOUND ( 'NONE', #293, .T. ) ;
ENDSEC;
END-ISO-10303-21;
