ISO-10303-21;
HEADER;
FILE_DESCRIPTION (( 'STEP AP203' ),
    '1' );
FILE_NAME ('963823.step',
    '2021-12-01T07:27:27',
    ( '' ),
    ( '' ),
    'SwSTEP 2.0',
    'SolidWorks 2019',
    '' );
FILE_SCHEMA (( 'CONFIG_CONTROL_DESIGN' ));
ENDSEC;

DATA;
#1 = FACE_OUTER_BOUND ( 'NONE', #58, .T. ) ;
#2 = ADVANCED_FACE ( 'NONE', ( #10, #190 ), #170, .T. ) ;
#3 = CYLINDRICAL_SURFACE ( 'NONE', #63, 0.2049999999999996270 ) ;
#4 = CARTESIAN_POINT ( 'NONE',  ( 1.047444401652940007E-14, 1.537253777228397137E-33, 3.000000000000000000 ) ) ;
#5 = AXIS2_PLACEMENT_3D ( 'NONE', #244, #204, #226 ) ;
#6 = DIRECTION ( 'NONE',  ( 3.491481338843133355E-15, -1.224646799147353207E-16, 1.000000000000000000 ) ) ;
#7 = DIRECTION ( 'NONE',  ( 0.0000000000000000000, 1.000000000000000000, 0.0000000000000000000 ) ) ;
#8 = CONICAL_SURFACE ( 'NONE', #73, 0.2049999999999994049, 0.5235987755982925984 ) ;
#9 = PERSON_AND_ORGANIZATION_ROLE ( 'creator' ) ;
#10 = FACE_OUTER_BOUND ( 'NONE', #100, .T. ) ;
#11 =( NAMED_UNIT ( * ) PLANE_ANGLE_UNIT ( ) SI_UNIT ( $, .RADIAN. ) );
#12 = EDGE_LOOP ( 'NONE', ( #148 ) ) ;
#13 = DIRECTION ( 'NONE',  ( 0.0000000000000000000, 0.0000000000000000000, 1.000000000000000000 ) ) ;
#14 = APPROVAL_STATUS ( 'not_yet_approved' ) ;
#15 = AXIS2_PLACEMENT_3D ( 'NONE', #181, #222, #154 ) ;
#16 = LOCAL_TIME ( 8, 27, 27.00000000000000000, #238 ) ;
#17 = VERTEX_POINT ( 'NONE', #196 ) ;
#18 = DIRECTION ( 'NONE',  ( 4.402134867553365707E-31, 1.000000000000000000, 1.224646799147353207E-16 ) ) ;
#19 = FACE_OUTER_BOUND ( 'NONE', #123, .T. ) ;
#20 = CC_DESIGN_DATE_AND_TIME_ASSIGNMENT ( #255, #36, ( #249 ) ) ;
#21 = CARTESIAN_POINT ( 'NONE',  ( 4.371085792580644624E-14, 1.499999999999995559, 12.51928728345705366 ) ) ;
#22 = FACE_OUTER_BOUND ( 'NONE', #234, .T. ) ;
#23 = DIRECTION ( 'NONE',  ( 0.0000000000000000000, -1.000000000000000000, 0.0000000000000000000 ) ) ;
#24 = DIRECTION ( 'NONE',  ( -4.697390108261564831E-31, -1.000000000000000000, -1.322197771323789827E-16 ) ) ;
#25 = AXIS2_PLACEMENT_3D ( 'NONE', #89, #259, #128 ) ;
#26 = FACE_OUTER_BOUND ( 'NONE', #12, .T. ) ;
#27 = ADVANCED_FACE ( 'NONE', ( #71 ), #184, .T. ) ;
#28 = PRODUCT_DEFINITION_FORMATION_WITH_SPECIFIED_SOURCE ( 'ANY', '', #139, .NOT_KNOWN. ) ;
#29 = ADVANCED_FACE ( 'NONE', ( #245, #182 ), #247, .T. ) ;
#30 = EDGE_CURVE ( 'NONE', #86, #86, #119, .T. ) ;
#31 = CLOSED_SHELL ( 'NONE', ( #209, #201, #232, #135, #2, #29, #237 ) ) ;
#32 = PERSON_AND_ORGANIZATION_ROLE ( 'design_supplier' ) ;
#33 = ORIENTED_EDGE ( 'NONE', *, *, #280, .T. ) ;
#34 = APPROVAL_ROLE ( '' ) ;
#35 = EDGE_LOOP ( 'NONE', ( #275 ) ) ;
#36 = DATE_TIME_ROLE ( 'creation_date' ) ;
#37 = ADVANCED_BREP_SHAPE_REPRESENTATION ( '963823', ( #50, #143, #91 ), #141 ) ;
#38 = APPLICATION_CONTEXT ( 'configuration controlled 3d designs of mechanical parts and assemblies' ) ;
#39 = APPLICATION_PROTOCOL_DEFINITION ( 'international standard', 'config_control_design', 1994, #72 ) ;
#40 = CIRCLE ( 'NONE', #206, 0.2049999999999994049 ) ;
#41 = CARTESIAN_POINT ( 'NONE',  ( 3.491481338843133848E-16, 0.2049999999999994049, 0.1000000000000000056 ) ) ;
#42 = ORIENTED_EDGE ( 'NONE', *, *, #30, .F. ) ;
#43 = AXIS2_PLACEMENT_3D ( 'NONE', #88, #268, #69 ) ;
#44 = CARTESIAN_POINT ( 'NONE',  ( 1.745740669421566678E-14, 0.2049999999999994604, 5.000000000000000000 ) ) ;
#45 = CC_DESIGN_PERSON_AND_ORGANIZATION_ASSIGNMENT ( #84, #124, ( #139 ) ) ;
#46 = PLANE ( 'NONE',  #271 ) ;
#47 = CARTESIAN_POINT ( 'NONE',  ( 1.047444401652940007E-14, -3.673940397442059868E-16, 3.000000000000000000 ) ) ;
#48 = CC_DESIGN_APPROVAL ( #277, ( #82 ) ) ;
#49 = DIRECTION ( 'NONE',  ( -3.491481338843133355E-15, 1.224646799147353207E-16, -1.000000000000000000 ) ) ;
#50 = MANIFOLD_SOLID_BREP ( 'Corps-Déplacer/Copier1[1]', #31 ) ;
#51 = DIRECTION ( 'NONE',  ( -3.491481338843133355E-15, 1.224646799147353207E-16, -1.000000000000000000 ) ) ;
#52 = EDGE_CURVE ( 'NONE', #282, #282, #130, .T. ) ;
#53 = CIRCLE ( 'NONE', #265, 1.200000000000003286 ) ;
#54 = EDGE_CURVE ( 'NONE', #65, #65, #94, .T. ) ;
#55 = AXIS2_PLACEMENT_3D ( 'NONE', #4, #270, #159 ) ;
#56 = EDGE_LOOP ( 'NONE', ( #152 ) ) ;
#57 = CARTESIAN_POINT ( 'NONE',  ( 0.0000000000000000000, 0.0000000000000000000, 0.0000000000000000000 ) ) ;
#58 = EDGE_LOOP ( 'NONE', ( #194 ) ) ;
#59 = CC_DESIGN_APPROVAL ( #136, ( #249 ) ) ;
#60 = APPLICATION_PROTOCOL_DEFINITION ( 'international standard', 'config_control_design', 1994, #38 ) ;
#61 = CALENDAR_DATE ( 2021, 1, 12 ) ;
#62 = VERTEX_POINT ( 'NONE', #41 ) ;
#63 = AXIS2_PLACEMENT_3D ( 'NONE', #111, #112, #243 ) ;
#64 = EDGE_LOOP ( 'NONE', ( #192 ) ) ;
#65 = VERTEX_POINT ( 'NONE', #44 ) ;
#66 = DIRECTION ( 'NONE',  ( 3.491481338843133355E-15, -1.224646799147353207E-16, 1.000000000000000000 ) ) ;
#67 = CARTESIAN_POINT ( 'NONE',  ( 0.0000000000000000000, 0.0000000000000000000, 0.0000000000000000000 ) ) ;
#68 = FACE_OUTER_BOUND ( 'NONE', #198, .T. ) ;
#69 = DIRECTION ( 'NONE',  ( 0.0000000000000000000, 1.000000000000000000, 0.0000000000000000000 ) ) ;
#70 = APPROVAL_PERSON_ORGANIZATION ( #149, #277, #76 ) ;
#71 = FACE_OUTER_BOUND ( 'NONE', #121, .T. ) ;
#72 = APPLICATION_CONTEXT ( 'configuration controlled 3d designs of mechanical parts and assemblies' ) ;
#73 = AXIS2_PLACEMENT_3D ( 'NONE', #138, #264, #24 ) ;
#74 = CARTESIAN_POINT ( 'NONE',  ( -1.102864159374860167E-31, 3.868326740420937615E-33, -3.158728494709019414E-17 ) ) ;
#75 = CIRCLE ( 'NONE', #240, 0.2049999999999997935 ) ;
#76 = APPROVAL_ROLE ( '' ) ;
#77 = ORIENTED_EDGE ( 'NONE', *, *, #164, .F. ) ;
#78 = CALENDAR_DATE ( 2021, 1, 12 ) ;
#79 = EDGE_LOOP ( 'NONE', ( #200 ) ) ;
#80 = PERSON_AND_ORGANIZATION ( #114, #231 ) ;
#81 = ORIENTED_EDGE ( 'NONE', *, *, #164, .T. ) ;
#82 = SECURITY_CLASSIFICATION ( '', '', #171 ) ;
#83 = CC_DESIGN_PERSON_AND_ORGANIZATION_ASSIGNMENT ( #80, #193, ( #82 ) ) ;
#84 = PERSON_AND_ORGANIZATION ( #114, #231 ) ;
#85 = AXIS2_PLACEMENT_3D ( 'NONE', #267, #161, #137 ) ;
#86 = VERTEX_POINT ( 'NONE', #203 ) ;
#87 =( LENGTH_UNIT ( ) NAMED_UNIT ( * ) SI_UNIT ( .MILLI., .METRE. ) );
#88 = CARTESIAN_POINT ( 'NONE',  ( 1.866998543791202749E-14, -6.548549365651904395E-16, 5.347296355333846840 ) ) ;
#89 = CARTESIAN_POINT ( 'NONE',  ( 1.316288464743861212E-13, -4.616918432785521081E-15, 37.69999999999999574 ) ) ;
#90 = DIRECTION ( 'NONE',  ( 0.0000000000000000000, 1.000000000000000000, 0.0000000000000000000 ) ) ;
#91 = AXIS2_PLACEMENT_3D ( 'NONE', #57, #13, #174 ) ;
#92 = DIRECTION ( 'NONE',  ( -3.491481338843133355E-15, 1.224646799147353207E-16, -1.000000000000000000 ) ) ;
#93 = FACE_OUTER_BOUND ( 'NONE', #64, .T. ) ;
#94 = CIRCLE ( 'NONE', #85, 0.2050000000000000711 ) ;
#95 = DIRECTION ( 'NONE',  ( -3.491481338843133355E-15, 1.224646799147353207E-16, -1.000000000000000000 ) ) ;
#96 = CC_DESIGN_DATE_AND_TIME_ASSIGNMENT ( #99, #214, ( #82 ) ) ;
#97 = ADVANCED_FACE ( 'NONE', ( #185, #283 ), #8, .T. ) ;
#98 = PERSON_AND_ORGANIZATION ( #114, #231 ) ;
#99 = DATE_AND_TIME ( #61, #186 ) ;
#100 = EDGE_LOOP ( 'NONE', ( #77 ) ) ;
#101 = PERSON_AND_ORGANIZATION_ROLE ( 'creator' ) ;
#102 = EDGE_LOOP ( 'NONE', ( #33 ) ) ;
#103 = APPROVAL_ROLE ( '' ) ;
#104 = CC_DESIGN_PERSON_AND_ORGANIZATION_ASSIGNMENT ( #98, #101, ( #249 ) ) ;
#105 = ORIENTED_EDGE ( 'NONE', *, *, #230, .T. ) ;
#106 = LOCAL_TIME ( 8, 27, 27.00000000000000000, #279 ) ;
#107 = APPROVAL_DATE_TIME ( #126, #136 ) ;
#108 = FACE_OUTER_BOUND ( 'NONE', #35, .T. ) ;
#109 = DIRECTION ( 'NONE',  ( -3.491481338843133355E-15, 1.224646799147353207E-16, -1.000000000000000000 ) ) ;
#110 = EDGE_LOOP ( 'NONE', ( #262 ) ) ;
#111 = CARTESIAN_POINT ( 'NONE',  ( 0.0000000000000000000, 0.0000000000000000000, 0.0000000000000000000 ) ) ;
#112 = DIRECTION ( 'NONE',  ( -3.491481338843133355E-15, 1.224646799147353207E-16, -1.000000000000000000 ) ) ;
#113 = FACE_OUTER_BOUND ( 'NONE', #56, .T. ) ;
#114 = PERSON ( 'UNSPECIFIED', 'UNSPECIFIED', 'UNSPECIFIED', ('UNSPECIFIED'), ('UNSPECIFIED'), ('UNSPECIFIED') ) ;
#115 = CARTESIAN_POINT ( 'NONE',  ( 1.047444401652940007E-14, -3.673940397442059868E-16, 3.000000000000000000 ) ) ;
#116 = AXIS2_PLACEMENT_3D ( 'NONE', #180, #183, #207 ) ;
#117 = DIRECTION ( 'NONE',  ( 0.0000000000000000000, 1.000000000000000000, 0.0000000000000000000 ) ) ;
#118 = DIRECTION ( 'NONE',  ( 4.275831445896958607E-31, 1.000000000000000000, 1.224646799147353207E-16 ) ) ;
#119 = CIRCLE ( 'NONE', #43, 0.2353844939755810883 ) ;
#120 = CALENDAR_DATE ( 2021, 1, 12 ) ;
#121 = EDGE_LOOP ( 'NONE', ( #146 ) ) ;
#122 = PERSON_AND_ORGANIZATION ( #114, #231 ) ;
#123 = EDGE_LOOP ( 'NONE', ( #235 ) ) ;
#124 = PERSON_AND_ORGANIZATION_ROLE ( 'design_owner' ) ;
#125 = EDGE_LOOP ( 'NONE', ( #42 ) ) ;
#126 = DATE_AND_TIME ( #120, #16 ) ;
#127 = AXIS2_PLACEMENT_3D ( 'NONE', #178, #109, #18 ) ;
#128 = DIRECTION ( 'NONE',  ( 0.0000000000000000000, 1.000000000000000000, 0.0000000000000000000 ) ) ;
#129 = VERTEX_POINT ( 'NONE', #241 ) ;
#130 = CIRCLE ( 'NONE', #197, 0.1472649730810376423 ) ;
#131 = CARTESIAN_POINT ( 'NONE',  ( 1.326762908760390423E-13, -4.653657836759941941E-15, 38.00000000000000000 ) ) ;
#132 = CARTESIAN_POINT ( 'NONE',  ( -5.514320796874300837E-32, 1.934163370210468807E-33, -1.579364247354509707E-17 ) ) ;
#133 = APPROVAL_PERSON_ORGANIZATION ( #122, #136, #34 ) ;
#134 = DIRECTION ( 'NONE',  ( -3.491481338843133355E-15, 1.224646799147353207E-16, -1.000000000000000000 ) ) ;
#135 = ADVANCED_FACE ( 'NONE', ( #140, #228 ), #160, .T. ) ;
#136 = APPROVAL ( #216, 'UNSPECIFIED' ) ;
#137 = DIRECTION ( 'NONE',  ( 0.0000000000000000000, 1.000000000000000000, 0.0000000000000000000 ) ) ;
#138 = CARTESIAN_POINT ( 'NONE',  ( 3.491481338843132862E-16, -1.224646799147352961E-17, 0.09999999999999997780 ) ) ;
#139 = PRODUCT ( '963823', '963823', '', ( #276 ) ) ;
#140 = FACE_BOUND ( 'NONE', #125, .T. ) ;
#141 =( GEOMETRIC_REPRESENTATION_CONTEXT ( 3 ) GLOBAL_UNCERTAINTY_ASSIGNED_CONTEXT ( ( #163 ) ) GLOBAL_UNIT_ASSIGNED_CONTEXT ( ( #87, #11, #150 ) ) REPRESENTATION_CONTEXT ( 'NONE', 'WORKASPACE' ) );
#142 = LOCAL_TIME ( 8, 27, 27.00000000000000000, #175 ) ;
#143 = MANIFOLD_SOLID_BREP ( 'Corps-Déplacer/Copier1[2]', #145 ) ;
#144 = CALENDAR_DATE ( 2021, 1, 12 ) ;
#145 = CLOSED_SHELL ( 'NONE', ( #254, #97, #218, #27 ) ) ;
#146 = ORIENTED_EDGE ( 'NONE', *, *, #156, .F. ) ;
#147 = CC_DESIGN_PERSON_AND_ORGANIZATION_ASSIGNMENT ( #191, #9, ( #28 ) ) ;
#148 = ORIENTED_EDGE ( 'NONE', *, *, #188, .F. ) ;
#149 = PERSON_AND_ORGANIZATION ( #114, #231 ) ;
#150 =( NAMED_UNIT ( * ) SI_UNIT ( $, .STERADIAN. ) SOLID_ANGLE_UNIT ( ) );
#151 = PLANE ( 'NONE',  #15 ) ;
#152 = ORIENTED_EDGE ( 'NONE', *, *, #156, .T. ) ;
#153 = DIRECTION ( 'NONE',  ( -4.275831445896958607E-31, -1.000000000000000000, -1.224646799147353207E-16 ) ) ;
#154 = DIRECTION ( 'NONE',  ( 4.275831445896958607E-31, 1.000000000000000000, 1.224646799147353207E-16 ) ) ;
#155 = FACE_OUTER_BOUND ( 'NONE', #278, .T. ) ;
#156 = EDGE_CURVE ( 'NONE', #129, #129, #169, .T. ) ;
#157 = APPROVAL_PERSON_ORGANIZATION ( #219, #187, #103 ) ;
#158 = CARTESIAN_POINT ( 'NONE',  ( 4.371085792580644624E-14, -1.533170509929184479E-15, 12.51928728345705366 ) ) ;
#159 = DIRECTION ( 'NONE',  ( -4.275831445896958607E-31, -1.000000000000000000, -1.224646799147353207E-16 ) ) ;
#160 = CONICAL_SURFACE ( 'NONE', #233, 1.499999999999996891, 0.1745329251994261199 ) ;
#161 = DIRECTION ( 'NONE',  ( -3.491481338843133355E-15, 1.224646799147353207E-16, -1.000000000000000000 ) ) ;
#162 = PRODUCT_DEFINITION_SHAPE ( 'NONE', 'NONE',  #249 ) ;
#163 = UNCERTAINTY_MEASURE_WITH_UNIT (LENGTH_MEASURE( 1.000000000000000082E-05 ), #87, 'distance_accuracy_value', 'NONE');
#164 = EDGE_CURVE ( 'NONE', #225, #225, #258, .T. ) ;
#165 = AXIS2_PLACEMENT_3D ( 'NONE', #67, #229, #118 ) ;
#166 = CALENDAR_DATE ( 2021, 1, 12 ) ;
#167 = EDGE_LOOP ( 'NONE', ( #81 ) ) ;
#168 = SHAPE_DEFINITION_REPRESENTATION ( #162, #37 ) ;
#169 = CIRCLE ( 'NONE', #211, 0.2049999999999997935 ) ;
#170 = CYLINDRICAL_SURFACE ( 'NONE', #223, 1.500000000000000000 ) ;
#171 = SECURITY_CLASSIFICATION_LEVEL ( 'unclassified' ) ;
#172 = ORIENTED_EDGE ( 'NONE', *, *, #188, .T. ) ;
#173 = LOCAL_TIME ( 8, 27, 27.00000000000000000, #239 ) ;
#174 = DIRECTION ( 'NONE',  ( 1.000000000000000000, 0.0000000000000000000, 0.0000000000000000000 ) ) ;
#175 = COORDINATED_UNIVERSAL_TIME_OFFSET ( 1, 0, .AHEAD. ) ;
#176 = CARTESIAN_POINT ( 'NONE',  ( 1.326762908760390423E-13, 1.199999999999998845, 38.00000000000000000 ) ) ;
#177 = DIRECTION ( 'NONE',  ( -3.491481338843133355E-15, 1.224646799147353207E-16, -1.000000000000000000 ) ) ;
#178 = CARTESIAN_POINT ( 'NONE',  ( 1.745740669421566678E-14, -4.336808689942017736E-16, 5.000000000000000000 ) ) ;
#179 = PRODUCT_RELATED_PRODUCT_CATEGORY ( 'detail', '', ( #139 ) ) ;
#180 = CARTESIAN_POINT ( 'NONE',  ( 4.371085792580644624E-14, -1.533170509929184479E-15, 12.51928728345705366 ) ) ;
#181 = CARTESIAN_POINT ( 'NONE',  ( 1.326762908760390423E-13, 8.998558695971103225E-33, 38.00000000000000000 ) ) ;
#182 = FACE_BOUND ( 'NONE', #217, .T. ) ;
#183 = DIRECTION ( 'NONE',  ( -3.491481338843133355E-15, 1.224646799147353207E-16, -1.000000000000000000 ) ) ;
#184 = PLANE ( 'NONE',  #55 ) ;
#185 = FACE_BOUND ( 'NONE', #110, .T. ) ;
#186 = LOCAL_TIME ( 8, 27, 27.00000000000000000, #253 ) ;
#187 = APPROVAL ( #14, 'UNSPECIFIED' ) ;
#188 = EDGE_CURVE ( 'NONE', #17, #17, #75, .T. ) ;
#189 = DATE_AND_TIME ( #166, #106 ) ;
#190 = FACE_OUTER_BOUND ( 'NONE', #79, .T. ) ;
#191 = PERSON_AND_ORGANIZATION ( #114, #231 ) ;
#192 = ORIENTED_EDGE ( 'NONE', *, *, #54, .T. ) ;
#193 = PERSON_AND_ORGANIZATION_ROLE ( 'classification_officer' ) ;
#194 = ORIENTED_EDGE ( 'NONE', *, *, #30, .T. ) ;
#195 = CC_DESIGN_APPROVAL ( #187, ( #28 ) ) ;
#196 = CARTESIAN_POINT ( 'NONE',  ( 1.047444401652940007E-14, 0.2049999999999994327, 3.000000000000000000 ) ) ;
#197 = AXIS2_PLACEMENT_3D ( 'NONE', #74, #49, #246 ) ;
#198 = EDGE_LOOP ( 'NONE', ( #215 ) ) ;
#199 = ORIENTED_EDGE ( 'NONE', *, *, #273, .F. ) ;
#200 = ORIENTED_EDGE ( 'NONE', *, *, #273, .T. ) ;
#201 = ADVANCED_FACE ( 'NONE', ( #26, #93 ), #261, .T. ) ;
#202 = DIRECTION ( 'NONE',  ( 0.0000000000000000000, 1.000000000000000000, 0.0000000000000000000 ) ) ;
#203 = CARTESIAN_POINT ( 'NONE',  ( 1.866998543791202749E-14, 0.2353844939755804222, 5.347296355333846840 ) ) ;
#204 = DIRECTION ( 'NONE',  ( 3.491481338843133355E-15, -1.224646799147353207E-16, 1.000000000000000000 ) ) ;
#205 = PLANE ( 'NONE',  #5 ) ;
#206 = AXIS2_PLACEMENT_3D ( 'NONE', #260, #177, #263 ) ;
#207 = DIRECTION ( 'NONE',  ( 0.0000000000000000000, 1.000000000000000000, 0.0000000000000000000 ) ) ;
#208 = DESIGN_CONTEXT ( 'detailed design', #72, 'design' ) ;
#209 = ADVANCED_FACE ( 'NONE', ( #155 ), #205, .F. ) ;
#210 = CARTESIAN_POINT ( 'NONE',  ( 1.326762908760390423E-13, -4.653657836759941941E-15, 38.00000000000000000 ) ) ;
#211 = AXIS2_PLACEMENT_3D ( 'NONE', #115, #95, #117 ) ;
#212 = CC_DESIGN_PERSON_AND_ORGANIZATION_ASSIGNMENT ( #213, #32, ( #28 ) ) ;
#213 = PERSON_AND_ORGANIZATION ( #114, #231 ) ;
#214 = DATE_TIME_ROLE ( 'classification_date' ) ;
#215 = ORIENTED_EDGE ( 'NONE', *, *, #230, .F. ) ;
#216 = APPROVAL_STATUS ( 'not_yet_approved' ) ;
#217 = EDGE_LOOP ( 'NONE', ( #105 ) ) ;
#218 = ADVANCED_FACE ( 'NONE', ( #22, #113 ), #3, .T. ) ;
#219 = PERSON_AND_ORGANIZATION ( #114, #231 ) ;
#220 = CIRCLE ( 'NONE', #25, 1.500000000000003331 ) ;
#221 = CARTESIAN_POINT ( 'NONE',  ( -4.731839565957903391E-32, 0.1472649730810376423, -1.355252715606880543E-17 ) ) ;
#222 = DIRECTION ( 'NONE',  ( -3.491481338843133355E-15, 1.224646799147353207E-16, -1.000000000000000000 ) ) ;
#223 = AXIS2_PLACEMENT_3D ( 'NONE', #248, #134, #227 ) ;
#224 = DIRECTION ( 'NONE',  ( -3.491481338843133355E-15, 1.224646799147353207E-16, -1.000000000000000000 ) ) ;
#225 = VERTEX_POINT ( 'NONE', #21 ) ;
#226 = DIRECTION ( 'NONE',  ( -4.275831445896958607E-31, -1.000000000000000000, -1.224646799147353207E-16 ) ) ;
#227 = DIRECTION ( 'NONE',  ( 4.275831445896959482E-31, 1.000000000000000000, 1.224646799147353207E-16 ) ) ;
#228 = FACE_OUTER_BOUND ( 'NONE', #167, .T. ) ;
#229 = DIRECTION ( 'NONE',  ( -3.491481338843133355E-15, 1.224646799147353207E-16, -1.000000000000000000 ) ) ;
#230 = EDGE_CURVE ( 'NONE', #281, #281, #53, .T. ) ;
#231 = ORGANIZATION ( 'UNSPECIFIED', 'UNSPECIFIED', '' ) ;
#232 = ADVANCED_FACE ( 'NONE', ( #108, #1 ), #250, .F. ) ;
#233 = AXIS2_PLACEMENT_3D ( 'NONE', #158, #6, #23 ) ;
#234 = EDGE_LOOP ( 'NONE', ( #252 ) ) ;
#235 = ORIENTED_EDGE ( 'NONE', *, *, #52, .T. ) ;
#236 = APPROVAL_STATUS ( 'not_yet_approved' ) ;
#237 = ADVANCED_FACE ( 'NONE', ( #68 ), #151, .F. ) ;
#238 = COORDINATED_UNIVERSAL_TIME_OFFSET ( 1, 0, .AHEAD. ) ;
#239 = COORDINATED_UNIVERSAL_TIME_OFFSET ( 1, 0, .AHEAD. ) ;
#240 = AXIS2_PLACEMENT_3D ( 'NONE', #47, #51, #90 ) ;
#241 = CARTESIAN_POINT ( 'NONE',  ( 1.047444401652940007E-14, 0.2049999999999994327, 3.000000000000000000 ) ) ;
#242 = VERTEX_POINT ( 'NONE', #257 ) ;
#243 = DIRECTION ( 'NONE',  ( 4.275831445896957731E-31, 1.000000000000000000, 1.224646799147353207E-16 ) ) ;
#244 = CARTESIAN_POINT ( 'NONE',  ( 1.047444401652940007E-14, 1.537253777228397137E-33, 3.000000000000000000 ) ) ;
#245 = FACE_OUTER_BOUND ( 'NONE', #251, .T. ) ;
#246 = DIRECTION ( 'NONE',  ( 4.275831445896958607E-31, 1.000000000000000000, 1.224646799147353454E-16 ) ) ;
#247 = CONICAL_SURFACE ( 'NONE', #269, 1.200000000000003286, 0.7853981633974453924 ) ;
#248 = CARTESIAN_POINT ( 'NONE',  ( 0.0000000000000000000, 0.0000000000000000000, 0.0000000000000000000 ) ) ;
#249 = PRODUCT_DEFINITION ( 'UNKNOWN', '', #28, #208 ) ;
#250 = TOROIDAL_SURFACE ( 'NONE', #127, 2.205000000000000071, 2.000000000000000000 ) ;
#251 = EDGE_LOOP ( 'NONE', ( #199 ) ) ;
#252 = ORIENTED_EDGE ( 'NONE', *, *, #280, .F. ) ;
#253 = COORDINATED_UNIVERSAL_TIME_OFFSET ( 1, 0, .AHEAD. ) ;
#254 = ADVANCED_FACE ( 'NONE', ( #19 ), #46, .F. ) ;
#255 = DATE_AND_TIME ( #78, #173 ) ;
#256 = DATE_AND_TIME ( #144, #142 ) ;
#257 = CARTESIAN_POINT ( 'NONE',  ( 1.316288464743861212E-13, 1.499999999999998668, 37.69999999999999574 ) ) ;
#258 = CIRCLE ( 'NONE', #116, 1.499999999999996891 ) ;
#259 = DIRECTION ( 'NONE',  ( -3.491481338843133355E-15, 1.224646799147353207E-16, -1.000000000000000000 ) ) ;
#260 = CARTESIAN_POINT ( 'NONE',  ( 3.491481338843132862E-16, -1.224646799147352961E-17, 0.09999999999999997780 ) ) ;
#261 = CYLINDRICAL_SURFACE ( 'NONE', #165, 0.2049999999999999323 ) ;
#262 = ORIENTED_EDGE ( 'NONE', *, *, #52, .F. ) ;
#263 = DIRECTION ( 'NONE',  ( 4.697390108261564831E-31, 1.000000000000000000, 1.322197771323789827E-16 ) ) ;
#264 = DIRECTION ( 'NONE',  ( 3.491481338843133355E-15, -1.224646799147353207E-16, 1.000000000000000000 ) ) ;
#265 = AXIS2_PLACEMENT_3D ( 'NONE', #131, #224, #202 ) ;
#266 = CC_DESIGN_SECURITY_CLASSIFICATION ( #82, ( #28 ) ) ;
#267 = CARTESIAN_POINT ( 'NONE',  ( 1.745740669421566678E-14, -6.123233995736766282E-16, 5.000000000000000000 ) ) ;
#268 = DIRECTION ( 'NONE',  ( -3.491481338843133355E-15, 1.224646799147353207E-16, -1.000000000000000000 ) ) ;
#269 = AXIS2_PLACEMENT_3D ( 'NONE', #210, #92, #7 ) ;
#270 = DIRECTION ( 'NONE',  ( 3.491481338843133355E-15, -1.224646799147353207E-16, 1.000000000000000000 ) ) ;
#271 = AXIS2_PLACEMENT_3D ( 'NONE', #132, #66, #153 ) ;
#272 = APPROVAL_DATE_TIME ( #256, #187 ) ;
#273 = EDGE_CURVE ( 'NONE', #242, #242, #220, .T. ) ;
#274 = APPROVAL_DATE_TIME ( #189, #277 ) ;
#275 = ORIENTED_EDGE ( 'NONE', *, *, #54, .F. ) ;
#276 = MECHANICAL_CONTEXT ( 'NONE', #38, 'mechanical' ) ;
#277 = APPROVAL ( #236, 'UNSPECIFIED' ) ;
#278 = EDGE_LOOP ( 'NONE', ( #172 ) ) ;
#279 = COORDINATED_UNIVERSAL_TIME_OFFSET ( 1, 0, .AHEAD. ) ;
#280 = EDGE_CURVE ( 'NONE', #62, #62, #40, .T. ) ;
#281 = VERTEX_POINT ( 'NONE', #176 ) ;
#282 = VERTEX_POINT ( 'NONE', #221 ) ;
#283 = FACE_OUTER_BOUND ( 'NONE', #102, .T. ) ;
ENDSEC;
END-ISO-10303-21;
