ISO-10303-21;
HEADER;
FILE_DESCRIPTION (( 'STEP AP203' ),
    '1' );
FILE_NAME ('963746.step',
    '2021-12-02T08:51:07',
    ( '' ),
    ( '' ),
    'SwSTEP 2.0',
    'SolidWorks 2019',
    '' );
FILE_SCHEMA (( 'CONFIG_CONTROL_DESIGN' ));
ENDSEC;

DATA;
#1 = CALENDAR_DATE ( 2021, 2, 12 ) ;
#2 = ORIENTED_EDGE ( 'NONE', *, *, #160, .F. ) ;
#3 = PERSON_AND_ORGANIZATION ( #42, #247 ) ;
#4 = CARTESIAN_POINT ( 'NONE',  ( 6.633814543801952113E-14, 4.503028747442223937E-32, 19.00000000000000000 ) ) ;
#5 = CC_DESIGN_PERSON_AND_ORGANIZATION_ASSIGNMENT ( #102, #194, ( #277 ) ) ;
#6 = FACE_BOUND ( 'NONE', #225, .T. ) ;
#7 = DIRECTION ( 'NONE',  ( 3.491481338843133355E-15, -1.224646799147353207E-16, 1.000000000000000000 ) ) ;
#8 = CC_DESIGN_APPROVAL ( #232, ( #36 ) ) ;
#9 = DIRECTION ( 'NONE',  ( -3.491481338843133355E-15, 1.224646799147353207E-16, -1.000000000000000000 ) ) ;
#10 = CARTESIAN_POINT ( 'NONE',  ( -4.198282749298739668E-31, 1.472559361450806647E-32, -1.202435969682082800E-16 ) ) ;
#11 = CARTESIAN_POINT ( 'NONE',  ( 6.633814543801952113E-14, -2.326828918379970970E-15, 19.00000000000000000 ) ) ;
#12 = TOROIDAL_SURFACE ( 'NONE', #47, 6.750000000000000888, 2.000000000000003109 ) ;
#13 =( NAMED_UNIT ( * ) PLANE_ANGLE_UNIT ( ) SI_UNIT ( $, .RADIAN. ) );
#14 = DIRECTION ( 'NONE',  ( -3.491481338843133355E-15, 1.224646799147353207E-16, -1.000000000000000000 ) ) ;
#15 = AXIS2_PLACEMENT_3D ( 'NONE', #248, #7, #95 ) ;
#16 = VERTEX_POINT ( 'NONE', #75 ) ;
#17 = APPLICATION_CONTEXT ( 'configuration controlled 3d designs of mechanical parts and assemblies' ) ;
#18 = COORDINATED_UNIVERSAL_TIME_OFFSET ( 1, 0, .AHEAD. ) ;
#19 = EDGE_LOOP ( 'NONE', ( #63 ) ) ;
#20 = DIRECTION ( 'NONE',  ( 0.0000000000000000000, 1.000000000000000000, 0.0000000000000000000 ) ) ;
#21 = APPROVAL_STATUS ( 'not_yet_approved' ) ;
#22 = CARTESIAN_POINT ( 'NONE',  ( 5.272136821653131493E-13, -1.849216666712503261E-14, 151.0000000000000000 ) ) ;
#23 = COORDINATED_UNIVERSAL_TIME_OFFSET ( 1, 0, .AHEAD. ) ;
#24 = AXIS2_PLACEMENT_3D ( 'NONE', #198, #152, #283 ) ;
#25 = EDGE_LOOP ( 'NONE', ( #110 ) ) ;
#26 = DIRECTION ( 'NONE',  ( 4.275831445896958607E-31, 1.000000000000000000, 1.224646799147353207E-16 ) ) ;
#27 = DIRECTION ( 'NONE',  ( -3.491481338843133355E-15, 1.224646799147353207E-16, -1.000000000000000000 ) ) ;
#28 = CARTESIAN_POINT ( 'NONE',  ( 5.272136821653131493E-13, 3.749399456654617198E-32, 151.0000000000000000 ) ) ;
#29 = AXIS2_PLACEMENT_3D ( 'NONE', #50, #27, #186 ) ;
#30 = AXIS2_PLACEMENT_3D ( 'NONE', #73, #141, #236 ) ;
#31 = EDGE_CURVE ( 'NONE', #255, #255, #239, .T. ) ;
#32 = VERTEX_POINT ( 'NONE', #275 ) ;
#33 = APPLICATION_PROTOCOL_DEFINITION ( 'international standard', 'config_control_design', 1994, #109 ) ;
#34 = ADVANCED_FACE ( 'NONE', ( #259 ), #57, .T. ) ;
#35 = AXIS2_PLACEMENT_3D ( 'NONE', #22, #111, #20 ) ;
#36 = SECURITY_CLASSIFICATION ( '', '', #262 ) ;
#37 = PERSON_AND_ORGANIZATION ( #42, #247 ) ;
#38 = EDGE_LOOP ( 'NONE', ( #242 ) ) ;
#39 = DATE_TIME_ROLE ( 'classification_date' ) ;
#40 = ORIENTED_EDGE ( 'NONE', *, *, #183, .F. ) ;
#41 = EDGE_LOOP ( 'NONE', ( #153 ) ) ;
#42 = PERSON ( 'UNSPECIFIED', 'UNSPECIFIED', 'UNSPECIFIED', ('UNSPECIFIED'), ('UNSPECIFIED'), ('UNSPECIFIED') ) ;
#43 = AXIS2_PLACEMENT_3D ( 'NONE', #119, #83, #177 ) ;
#44 = EDGE_CURVE ( 'NONE', #190, #190, #180, .T. ) ;
#45 = DIRECTION ( 'NONE',  ( 3.491481338843133355E-15, -1.224646799147353207E-16, 1.000000000000000000 ) ) ;
#46 = FACE_OUTER_BOUND ( 'NONE', #130, .T. ) ;
#47 = AXIS2_PLACEMENT_3D ( 'NONE', #98, #14, #213 ) ;
#48 = PLANE ( 'NONE',  #96 ) ;
#49 = CC_DESIGN_SECURITY_CLASSIFICATION ( #36, ( #124 ) ) ;
#50 = CARTESIAN_POINT ( 'NONE',  ( 5.237222008264700285E-13, -1.836970198721029747E-14, 150.0000000000000000 ) ) ;
#51 = DIRECTION ( 'NONE',  ( -3.491481338843133355E-15, 1.224646799147353207E-16, -1.000000000000000000 ) ) ;
#52 = CARTESIAN_POINT ( 'NONE',  ( 7.392766139407611379E-14, 4.749999999999986677, 21.17372376349898744 ) ) ;
#53 = AXIS2_PLACEMENT_3D ( 'NONE', #84, #176, #266 ) ;
#54 = CARTESIAN_POINT ( 'NONE',  ( 6.633814543801952113E-14, 6.004999999999997229, 19.00000000000000000 ) ) ;
#55 = CIRCLE ( 'NONE', #203, 5.505000000000002558 ) ;
#56 = PERSON_AND_ORGANIZATION_ROLE ( 'design_owner' ) ;
#57 = PLANE ( 'NONE',  #209 ) ;
#58 = DATE_AND_TIME ( #260, #61 ) ;
#59 = EDGE_LOOP ( 'NONE', ( #80 ) ) ;
#60 = CONICAL_SURFACE ( 'NONE', #91, 4.749999999999989342, 0.5235987755982929315 ) ;
#61 = LOCAL_TIME ( 9, 51, 7.000000000000000000, #23 ) ;
#62 = COORDINATED_UNIVERSAL_TIME_OFFSET ( 1, 0, .AHEAD. ) ;
#63 = ORIENTED_EDGE ( 'NONE', *, *, #76, .F. ) ;
#64 = DATE_AND_TIME ( #121, #278 ) ;
#65 = DIRECTION ( 'NONE',  ( -3.491481338843133355E-15, 1.224646799147353207E-16, -1.000000000000000000 ) ) ;
#66 = CARTESIAN_POINT ( 'NONE',  ( 0.0000000000000000000, 0.0000000000000000000, 0.0000000000000000000 ) ) ;
#67 = DIRECTION ( 'NONE',  ( -3.491481338843133355E-15, 1.224646799147353207E-16, -1.000000000000000000 ) ) ;
#68 = CC_DESIGN_DATE_AND_TIME_ASSIGNMENT ( #241, #39, ( #36 ) ) ;
#69 = ADVANCED_BREP_SHAPE_REPRESENTATION ( '963746', ( #189, #188, #43 ), #70 ) ;
#70 =( GEOMETRIC_REPRESENTATION_CONTEXT ( 3 ) GLOBAL_UNCERTAINTY_ASSIGNED_CONTEXT ( ( #246 ) ) GLOBAL_UNIT_ASSIGNED_CONTEXT ( ( #212, #13, #77 ) ) REPRESENTATION_CONTEXT ( 'NONE', 'WORKASPACE' ) );
#71 = DIRECTION ( 'NONE',  ( -4.275831445896958607E-31, -1.000000000000000000, -1.224646799147353207E-16 ) ) ;
#72 = CARTESIAN_POINT ( 'NONE',  ( 3.666055405785289897E-13, -1.285879139104720791E-14, 105.0000000000000000 ) ) ;
#73 = CARTESIAN_POINT ( 'NONE',  ( 6.633814543801952113E-14, -2.326828918379970970E-15, 19.00000000000000000 ) ) ;
#74 = CONICAL_SURFACE ( 'NONE', #15, 6.004999999999997229, 0.7853981633974430610 ) ;
#75 = CARTESIAN_POINT ( 'NONE',  ( 5.237222008264700285E-13, 5.999999999999983125, 150.0000000000000000 ) ) ;
#76 = EDGE_CURVE ( 'NONE', #166, #166, #147, .T. ) ;
#77 =( NAMED_UNIT ( * ) SI_UNIT ( $, .STERADIAN. ) SOLID_ANGLE_UNIT ( ) );
#78 = DIRECTION ( 'NONE',  ( 4.275831445896958607E-31, 1.000000000000000000, 1.224646799147353207E-16 ) ) ;
#79 = PRODUCT ( '963746', '963746', '', ( #219 ) ) ;
#80 = ORIENTED_EDGE ( 'NONE', *, *, #31, .T. ) ;
#81 = PERSON_AND_ORGANIZATION ( #42, #247 ) ;
#82 = ORIENTED_EDGE ( 'NONE', *, *, #160, .T. ) ;
#83 = DIRECTION ( 'NONE',  ( 0.0000000000000000000, 0.0000000000000000000, 1.000000000000000000 ) ) ;
#84 = CARTESIAN_POINT ( 'NONE',  ( 7.392766139407611379E-14, -2.593033303299928672E-15, 21.17372376349898744 ) ) ;
#85 = CIRCLE ( 'NONE', #113, 6.004999999999997229 ) ;
#86 = LOCAL_TIME ( 9, 51, 7.000000000000000000, #197 ) ;
#87 = ADVANCED_FACE ( 'NONE', ( #199, #88 ), #254, .T. ) ;
#88 = FACE_OUTER_BOUND ( 'NONE', #38, .T. ) ;
#89 = APPROVAL_DATE_TIME ( #269, #232 ) ;
#90 = DIRECTION ( 'NONE',  ( -3.491481338843133355E-15, 1.224646799147353207E-16, -1.000000000000000000 ) ) ;
#91 = AXIS2_PLACEMENT_3D ( 'NONE', #249, #90, #138 ) ;
#92 = ADVANCED_FACE ( 'NONE', ( #157 ), #48, .F. ) ;
#93 = DIRECTION ( 'NONE',  ( -4.275831445896958607E-31, -1.000000000000000000, -1.224646799147353207E-16 ) ) ;
#94 = DIRECTION ( 'NONE',  ( -3.491481338843133355E-15, 1.224646799147353207E-16, -1.000000000000000000 ) ) ;
#95 = DIRECTION ( 'NONE',  ( -4.490094791244182103E-31, -1.000000000000000000, -1.263849326794093972E-16 ) ) ;
#96 = AXIS2_PLACEMENT_3D ( 'NONE', #28, #9, #158 ) ;
#97 = DIRECTION ( 'NONE',  ( 0.0000000000000000000, 1.000000000000000000, 0.0000000000000000000 ) ) ;
#98 = CARTESIAN_POINT ( 'NONE',  ( 3.666055405785289897E-13, -1.301042606982605321E-14, 105.0000000000000000 ) ) ;
#99 = AXIS2_PLACEMENT_3D ( 'NONE', #72, #65, #133 ) ;
#100 = CC_DESIGN_APPROVAL ( #245, ( #124 ) ) ;
#101 = CARTESIAN_POINT ( 'NONE',  ( 1.745740669421567072E-15, 6.004999999999997229, 0.5000000000000001110 ) ) ;
#102 = PERSON_AND_ORGANIZATION ( #42, #247 ) ;
#103 = PRODUCT_RELATED_PRODUCT_CATEGORY ( 'detail', '', ( #79 ) ) ;
#104 = ORIENTED_EDGE ( 'NONE', *, *, #44, .F. ) ;
#105 = PERSON_AND_ORGANIZATION_ROLE ( 'design_supplier' ) ;
#106 = EDGE_LOOP ( 'NONE', ( #2 ) ) ;
#107 = APPROVAL_ROLE ( '' ) ;
#108 = DIRECTION ( 'NONE',  ( 3.491481338843133355E-15, -1.224646799147353207E-16, 1.000000000000000000 ) ) ;
#109 = APPLICATION_CONTEXT ( 'configuration controlled 3d designs of mechanical parts and assemblies' ) ;
#110 = ORIENTED_EDGE ( 'NONE', *, *, #44, .T. ) ;
#111 = DIRECTION ( 'NONE',  ( -3.491481338843133355E-15, 1.224646799147353207E-16, -1.000000000000000000 ) ) ;
#112 = FACE_BOUND ( 'NONE', #59, .T. ) ;
#113 = AXIS2_PLACEMENT_3D ( 'NONE', #179, #273, #202 ) ;
#114 = FACE_BOUND ( 'NONE', #244, .T. ) ;
#115 = PLANE ( 'NONE',  #235 ) ;
#116 = APPROVAL_PERSON_ORGANIZATION ( #238, #120, #125 ) ;
#117 = AXIS2_PLACEMENT_3D ( 'NONE', #66, #207, #78 ) ;
#118 = LOCAL_TIME ( 9, 51, 7.000000000000000000, #62 ) ;
#119 = CARTESIAN_POINT ( 'NONE',  ( 0.0000000000000000000, 0.0000000000000000000, 0.0000000000000000000 ) ) ;
#120 = APPROVAL ( #265, 'UNSPECIFIED' ) ;
#121 = CALENDAR_DATE ( 2021, 2, 12 ) ;
#122 = ORIENTED_EDGE ( 'NONE', *, *, #126, .F. ) ;
#123 = CIRCLE ( 'NONE', #251, 6.004999999999999893 ) ;
#124 = PRODUCT_DEFINITION_FORMATION_WITH_SPECIFIED_SOURCE ( 'ANY', '', #79, .NOT_KNOWN. ) ;
#125 = APPROVAL_ROLE ( '' ) ;
#126 = EDGE_CURVE ( 'NONE', #32, #32, #55, .T. ) ;
#127 = PERSON_AND_ORGANIZATION ( #42, #247 ) ;
#128 = ORIENTED_EDGE ( 'NONE', *, *, #183, .T. ) ;
#129 = COORDINATED_UNIVERSAL_TIME_OFFSET ( 1, 0, .AHEAD. ) ;
#130 = EDGE_LOOP ( 'NONE', ( #82 ) ) ;
#131 = EDGE_LOOP ( 'NONE', ( #237 ) ) ;
#132 = FACE_OUTER_BOUND ( 'NONE', #267, .T. ) ;
#133 = DIRECTION ( 'NONE',  ( 0.0000000000000000000, 1.000000000000000000, 0.0000000000000000000 ) ) ;
#134 = AXIS2_PLACEMENT_3D ( 'NONE', #182, #94, #206 ) ;
#135 = PLANE ( 'NONE',  #257 ) ;
#136 = FACE_OUTER_BOUND ( 'NONE', #106, .T. ) ;
#137 = CC_DESIGN_PERSON_AND_ORGANIZATION_ASSIGNMENT ( #37, #217, ( #124 ) ) ;
#138 = DIRECTION ( 'NONE',  ( 0.0000000000000000000, 1.000000000000000000, 0.0000000000000000000 ) ) ;
#139 = CLOSED_SHELL ( 'NONE', ( #243, #165, #87, #34 ) ) ;
#140 = CARTESIAN_POINT ( 'NONE',  ( 6.633814543801952113E-14, 6.004999999999997229, 19.00000000000000000 ) ) ;
#141 = DIRECTION ( 'NONE',  ( -3.491481338843133355E-15, 1.224646799147353207E-16, -1.000000000000000000 ) ) ;
#142 = CLOSED_SHELL ( 'NONE', ( #200, #172, #253, #268, #210, #148, #92 ) ) ;
#143 = APPLICATION_PROTOCOL_DEFINITION ( 'international standard', 'config_control_design', 1994, #17 ) ;
#144 = EDGE_LOOP ( 'NONE', ( #104 ) ) ;
#145 = APPROVAL_DATE_TIME ( #58, #245 ) ;
#146 = EDGE_LOOP ( 'NONE', ( #261 ) ) ;
#147 = CIRCLE ( 'NONE', #53, 4.749999999999989342 ) ;
#148 = ADVANCED_FACE ( 'NONE', ( #136, #112 ), #223, .T. ) ;
#149 = CALENDAR_DATE ( 2021, 2, 12 ) ;
#150 = EDGE_LOOP ( 'NONE', ( #40 ) ) ;
#151 = DATE_TIME_ROLE ( 'creation_date' ) ;
#152 = DIRECTION ( 'NONE',  ( -3.491481338843133355E-15, 1.224646799147353207E-16, -1.000000000000000000 ) ) ;
#153 = ORIENTED_EDGE ( 'NONE', *, *, #31, .F. ) ;
#154 = CC_DESIGN_APPROVAL ( #120, ( #277 ) ) ;
#155 = CC_DESIGN_PERSON_AND_ORGANIZATION_ASSIGNMENT ( #3, #105, ( #124 ) ) ;
#156 = DESIGN_CONTEXT ( 'detailed design', #17, 'design' ) ;
#157 = FACE_OUTER_BOUND ( 'NONE', #41, .T. ) ;
#158 = DIRECTION ( 'NONE',  ( 4.275831445896958607E-31, 1.000000000000000000, 1.224646799147353207E-16 ) ) ;
#159 = CARTESIAN_POINT ( 'NONE',  ( -8.396565498597479336E-31, 2.945118722901613295E-32, -2.404871939364165600E-16 ) ) ;
#160 = EDGE_CURVE ( 'NONE', #16, #16, #263, .T. ) ;
#161 = CIRCLE ( 'NONE', #30, 6.004999999999999893 ) ;
#162 = FACE_OUTER_BOUND ( 'NONE', #19, .T. ) ;
#163 = CC_DESIGN_PERSON_AND_ORGANIZATION_ASSIGNMENT ( #282, #174, ( #36 ) ) ;
#164 = FACE_OUTER_BOUND ( 'NONE', #216, .T. ) ;
#165 = ADVANCED_FACE ( 'NONE', ( #114, #164 ), #74, .T. ) ;
#166 = VERTEX_POINT ( 'NONE', #52 ) ;
#167 = VERTEX_POINT ( 'NONE', #101 ) ;
#168 = CIRCLE ( 'NONE', #99, 4.750000000000000888 ) ;
#169 = ORIENTED_EDGE ( 'NONE', *, *, #214, .T. ) ;
#170 = PRODUCT_DEFINITION_SHAPE ( 'NONE', 'NONE',  #277 ) ;
#171 = APPROVAL_ROLE ( '' ) ;
#172 = ADVANCED_FACE ( 'NONE', ( #226, #6 ), #60, .T. ) ;
#173 = EDGE_LOOP ( 'NONE', ( #240 ) ) ;
#174 = PERSON_AND_ORGANIZATION_ROLE ( 'classification_officer' ) ;
#175 = LOCAL_TIME ( 9, 51, 7.000000000000000000, #129 ) ;
#176 = DIRECTION ( 'NONE',  ( -3.491481338843133355E-15, 1.224646799147353207E-16, -1.000000000000000000 ) ) ;
#177 = DIRECTION ( 'NONE',  ( 1.000000000000000000, 0.0000000000000000000, 0.0000000000000000000 ) ) ;
#178 = DIRECTION ( 'NONE',  ( -4.275831445896958607E-31, -1.000000000000000000, -1.224646799147353207E-16 ) ) ;
#179 = CARTESIAN_POINT ( 'NONE',  ( 1.745740669421564508E-15, -6.123233995736758640E-17, 0.4999999999999993339 ) ) ;
#180 = CIRCLE ( 'NONE', #24, 5.999999999999995559 ) ;
#181 = CARTESIAN_POINT ( 'NONE',  ( 0.0000000000000000000, 0.0000000000000000000, 0.0000000000000000000 ) ) ;
#182 = CARTESIAN_POINT ( 'NONE',  ( 5.272136821653131493E-13, -1.849216666712503261E-14, 151.0000000000000000 ) ) ;
#183 = EDGE_CURVE ( 'NONE', #167, #167, #85, .T. ) ;
#184 = DIRECTION ( 'NONE',  ( -3.491481338843133355E-15, 1.224646799147353207E-16, -1.000000000000000000 ) ) ;
#185 = AXIS2_PLACEMENT_3D ( 'NONE', #201, #272, #26 ) ;
#186 = DIRECTION ( 'NONE',  ( 0.0000000000000000000, 1.000000000000000000, 0.0000000000000000000 ) ) ;
#187 = VERTEX_POINT ( 'NONE', #54 ) ;
#188 = MANIFOLD_SOLID_BREP ( 'Corps-Déplacer/Copier1[2]', #139 ) ;
#189 = MANIFOLD_SOLID_BREP ( 'Corps-Déplacer/Copier1[1]', #142 ) ;
#190 = VERTEX_POINT ( 'NONE', #191 ) ;
#191 = CARTESIAN_POINT ( 'NONE',  ( 3.730789202342417614E-13, 5.999999999999983125, 106.8540496217739104 ) ) ;
#192 = EDGE_CURVE ( 'NONE', #187, #187, #123, .T. ) ;
#193 = VERTEX_POINT ( 'NONE', #276 ) ;
#194 = PERSON_AND_ORGANIZATION_ROLE ( 'creator' ) ;
#195 = CALENDAR_DATE ( 2021, 2, 12 ) ;
#196 = EDGE_LOOP ( 'NONE', ( #222 ) ) ;
#197 = COORDINATED_UNIVERSAL_TIME_OFFSET ( 1, 0, .AHEAD. ) ;
#198 = CARTESIAN_POINT ( 'NONE',  ( 3.730789202342417614E-13, -1.308584698452378832E-14, 106.8540496217739104 ) ) ;
#199 = FACE_OUTER_BOUND ( 'NONE', #150, .T. ) ;
#200 = ADVANCED_FACE ( 'NONE', ( #252 ), #135, .F. ) ;
#201 = CARTESIAN_POINT ( 'NONE',  ( 0.0000000000000000000, 0.0000000000000000000, 0.0000000000000000000 ) ) ;
#202 = DIRECTION ( 'NONE',  ( 4.490094791244182103E-31, 1.000000000000000000, 1.263849326794093972E-16 ) ) ;
#203 = AXIS2_PLACEMENT_3D ( 'NONE', #159, #184, #230 ) ;
#204 = DIRECTION ( 'NONE',  ( 3.491481338843133355E-15, -1.224646799147353207E-16, 1.000000000000000000 ) ) ;
#205 = FACE_OUTER_BOUND ( 'NONE', #131, .T. ) ;
#206 = DIRECTION ( 'NONE',  ( 0.0000000000000000000, 1.000000000000000000, 0.0000000000000000000 ) ) ;
#207 = DIRECTION ( 'NONE',  ( -3.491481338843133355E-15, 1.224646799147353207E-16, -1.000000000000000000 ) ) ;
#208 = CARTESIAN_POINT ( 'NONE',  ( 5.272136821653131493E-13, 4.999999999999983125, 151.0000000000000000 ) ) ;
#209 = AXIS2_PLACEMENT_3D ( 'NONE', #4, #108, #178 ) ;
#210 = ADVANCED_FACE ( 'NONE', ( #229, #46 ), #231, .T. ) ;
#211 = APPROVAL_PERSON_ORGANIZATION ( #81, #245, #171 ) ;
#212 =( LENGTH_UNIT ( ) NAMED_UNIT ( * ) SI_UNIT ( .MILLI., .METRE. ) );
#213 = DIRECTION ( 'NONE',  ( 4.275831445896958607E-31, 1.000000000000000000, 1.224646799147353207E-16 ) ) ;
#214 = EDGE_CURVE ( 'NONE', #193, #193, #168, .T. ) ;
#215 = APPROVAL_DATE_TIME ( #64, #120 ) ;
#216 = EDGE_LOOP ( 'NONE', ( #128 ) ) ;
#217 = PERSON_AND_ORGANIZATION_ROLE ( 'creator' ) ;
#218 = ORIENTED_EDGE ( 'NONE', *, *, #274, .F. ) ;
#219 = MECHANICAL_CONTEXT ( 'NONE', #109, 'mechanical' ) ;
#220 = DATE_AND_TIME ( #195, #175 ) ;
#221 = CC_DESIGN_PERSON_AND_ORGANIZATION_ASSIGNMENT ( #279, #56, ( #79 ) ) ;
#222 = ORIENTED_EDGE ( 'NONE', *, *, #214, .F. ) ;
#223 = CONICAL_SURFACE ( 'NONE', #134, 5.000000000000000888, 0.7853981633974479459 ) ;
#224 = SHAPE_DEFINITION_REPRESENTATION ( #170, #69 ) ;
#225 = EDGE_LOOP ( 'NONE', ( #281 ) ) ;
#226 = FACE_OUTER_BOUND ( 'NONE', #264, .T. ) ;
#227 = AXIS2_PLACEMENT_3D ( 'NONE', #181, #51, #250 ) ;
#228 = APPROVAL_PERSON_ORGANIZATION ( #127, #232, #107 ) ;
#229 = FACE_OUTER_BOUND ( 'NONE', #144, .T. ) ;
#230 = DIRECTION ( 'NONE',  ( 4.275831445896959482E-31, 1.000000000000000000, 1.224646799147353207E-16 ) ) ;
#231 = CYLINDRICAL_SURFACE ( 'NONE', #227, 5.999999999999998224 ) ;
#232 = APPROVAL ( #21, 'UNSPECIFIED' ) ;
#233 = FACE_OUTER_BOUND ( 'NONE', #196, .T. ) ;
#234 = CC_DESIGN_DATE_AND_TIME_ASSIGNMENT ( #220, #151, ( #277 ) ) ;
#235 = AXIS2_PLACEMENT_3D ( 'NONE', #10, #45, #71 ) ;
#236 = DIRECTION ( 'NONE',  ( 0.0000000000000000000, 1.000000000000000000, 0.0000000000000000000 ) ) ;
#237 = ORIENTED_EDGE ( 'NONE', *, *, #126, .T. ) ;
#238 = PERSON_AND_ORGANIZATION ( #42, #247 ) ;
#239 = CIRCLE ( 'NONE', #35, 5.000000000000000888 ) ;
#240 = ORIENTED_EDGE ( 'NONE', *, *, #274, .T. ) ;
#241 = DATE_AND_TIME ( #149, #118 ) ;
#242 = ORIENTED_EDGE ( 'NONE', *, *, #192, .T. ) ;
#243 = ADVANCED_FACE ( 'NONE', ( #205 ), #115, .F. ) ;
#244 = EDGE_LOOP ( 'NONE', ( #122 ) ) ;
#245 = APPROVAL ( #280, 'UNSPECIFIED' ) ;
#246 = UNCERTAINTY_MEASURE_WITH_UNIT (LENGTH_MEASURE( 1.000000000000000082E-05 ), #212, 'distance_accuracy_value', 'NONE');
#247 = ORGANIZATION ( 'UNSPECIFIED', 'UNSPECIFIED', '' ) ;
#248 = CARTESIAN_POINT ( 'NONE',  ( 1.745740669421564508E-15, -6.123233995736758640E-17, 0.4999999999999993339 ) ) ;
#249 = CARTESIAN_POINT ( 'NONE',  ( 7.392766139407611379E-14, -2.593033303299928672E-15, 21.17372376349898744 ) ) ;
#250 = DIRECTION ( 'NONE',  ( 4.275831445896958607E-31, 1.000000000000000000, 1.224646799147353207E-16 ) ) ;
#251 = AXIS2_PLACEMENT_3D ( 'NONE', #11, #67, #97 ) ;
#252 = FACE_OUTER_BOUND ( 'NONE', #173, .T. ) ;
#253 = ADVANCED_FACE ( 'NONE', ( #162, #132 ), #271, .T. ) ;
#254 = CYLINDRICAL_SURFACE ( 'NONE', #185, 6.004999999999998117 ) ;
#255 = VERTEX_POINT ( 'NONE', #208 ) ;
#256 = VERTEX_POINT ( 'NONE', #140 ) ;
#257 = AXIS2_PLACEMENT_3D ( 'NONE', #270, #204, #93 ) ;
#258 = FACE_OUTER_BOUND ( 'NONE', #25, .T. ) ;
#259 = FACE_OUTER_BOUND ( 'NONE', #146, .T. ) ;
#260 = CALENDAR_DATE ( 2021, 2, 12 ) ;
#261 = ORIENTED_EDGE ( 'NONE', *, *, #192, .F. ) ;
#262 = SECURITY_CLASSIFICATION_LEVEL ( 'unclassified' ) ;
#263 = CIRCLE ( 'NONE', #29, 6.000000000000000888 ) ;
#264 = EDGE_LOOP ( 'NONE', ( #218 ) ) ;
#265 = APPROVAL_STATUS ( 'not_yet_approved' ) ;
#266 = DIRECTION ( 'NONE',  ( 0.0000000000000000000, 1.000000000000000000, 0.0000000000000000000 ) ) ;
#267 = EDGE_LOOP ( 'NONE', ( #169 ) ) ;
#268 = ADVANCED_FACE ( 'NONE', ( #233, #258 ), #12, .F. ) ;
#269 = DATE_AND_TIME ( #1, #86 ) ;
#270 = CARTESIAN_POINT ( 'NONE',  ( 6.633814543801952113E-14, 4.503028747442223937E-32, 19.00000000000000000 ) ) ;
#271 = CYLINDRICAL_SURFACE ( 'NONE', #117, 4.749999999999995559 ) ;
#272 = DIRECTION ( 'NONE',  ( -3.491481338843133355E-15, 1.224646799147353207E-16, -1.000000000000000000 ) ) ;
#273 = DIRECTION ( 'NONE',  ( -3.491481338843133355E-15, 1.224646799147353207E-16, -1.000000000000000000 ) ) ;
#274 = EDGE_CURVE ( 'NONE', #256, #256, #161, .T. ) ;
#275 = CARTESIAN_POINT ( 'NONE',  ( 1.514188661106529085E-30, 5.505000000000002558, 4.336808689942017736E-16 ) ) ;
#276 = CARTESIAN_POINT ( 'NONE',  ( 3.666055405785289897E-13, 4.749999999999987566, 105.0000000000000000 ) ) ;
#277 = PRODUCT_DEFINITION ( 'UNKNOWN', '', #124, #156 ) ;
#278 = LOCAL_TIME ( 9, 51, 7.000000000000000000, #18 ) ;
#279 = PERSON_AND_ORGANIZATION ( #42, #247 ) ;
#280 = APPROVAL_STATUS ( 'not_yet_approved' ) ;
#281 = ORIENTED_EDGE ( 'NONE', *, *, #76, .T. ) ;
#282 = PERSON_AND_ORGANIZATION ( #42, #247 ) ;
#283 = DIRECTION ( 'NONE',  ( 0.0000000000000000000, 1.000000000000000000, 0.0000000000000000000 ) ) ;
ENDSEC;
END-ISO-10303-21;
