ISO-10303-21;
HEADER;
FILE_DESCRIPTION (( 'STEP AP203' ),
    '1' );
FILE_NAME ('963745.step',
    '2021-12-02T08:41:36',
    ( '' ),
    ( '' ),
    'SwSTEP 2.0',
    'SolidWorks 2019',
    '' );
FILE_SCHEMA (( 'CONFIG_CONTROL_DESIGN' ));
ENDSEC;

DATA;
#1 = DATE_AND_TIME ( #155, #58 ) ;
#2 = APPROVAL_ROLE ( '' ) ;
#3 = SECURITY_CLASSIFICATION ( '', '', #245 ) ;
#4 = CARTESIAN_POINT ( 'NONE',  ( 5.237222008264700285E-13, -1.836970198721029747E-14, 150.0000000000000000 ) ) ;
#5 = APPROVAL_STATUS ( 'not_yet_approved' ) ;
#6 = PERSON_AND_ORGANIZATION ( #241, #277 ) ;
#7 = ADVANCED_FACE ( 'NONE', ( #50, #49 ), #45, .T. ) ;
#8 = DIRECTION ( 'NONE',  ( -3.491481338843133355E-15, 1.224646799147353207E-16, -1.000000000000000000 ) ) ;
#9 = AXIS2_PLACEMENT_3D ( 'NONE', #164, #140, #71 ) ;
#10 = DIRECTION ( 'NONE',  ( -3.491481338843133355E-15, 1.224646799147353207E-16, -1.000000000000000000 ) ) ;
#11 = EDGE_LOOP ( 'NONE', ( #106 ) ) ;
#12 = AXIS2_PLACEMENT_3D ( 'NONE', #165, #113, #95 ) ;
#13 = CONICAL_SURFACE ( 'NONE', #25, 4.749999999999989342, 0.5235987755982933756 ) ;
#14 = DIRECTION ( 'NONE',  ( -3.491481338843133355E-15, 1.224646799147353207E-16, -1.000000000000000000 ) ) ;
#15 = VERTEX_POINT ( 'NONE', #128 ) ;
#16 = CARTESIAN_POINT ( 'NONE',  ( 3.666055405785289897E-13, 4.749999999999987566, 105.0000000000000000 ) ) ;
#17 = EDGE_LOOP ( 'NONE', ( #42 ) ) ;
#18 = PERSON_AND_ORGANIZATION_ROLE ( 'classification_officer' ) ;
#19 = CALENDAR_DATE ( 2021, 2, 12 ) ;
#20 =( NAMED_UNIT ( * ) SI_UNIT ( $, .STERADIAN. ) SOLID_ANGLE_UNIT ( ) );
#21 = PLANE ( 'NONE',  #161 ) ;
#22 = APPLICATION_CONTEXT ( 'configuration controlled 3d designs of mechanical parts and assemblies' ) ;
#23 = LOCAL_TIME ( 9, 41, 36.00000000000000000, #172 ) ;
#24 = PERSON_AND_ORGANIZATION ( #241, #277 ) ;
#25 = AXIS2_PLACEMENT_3D ( 'NONE', #162, #35, #54 ) ;
#26 = DIRECTION ( 'NONE',  ( -3.491481338843133355E-15, 1.224646799147353207E-16, -1.000000000000000000 ) ) ;
#27 = CC_DESIGN_SECURITY_CLASSIFICATION ( #3, ( #251 ) ) ;
#28 = DIRECTION ( 'NONE',  ( 0.0000000000000000000, 1.000000000000000000, 0.0000000000000000000 ) ) ;
#29 = CC_DESIGN_DATE_AND_TIME_ASSIGNMENT ( #1, #196, ( #237 ) ) ;
#30 = DIRECTION ( 'NONE',  ( 0.0000000000000000000, 1.000000000000000000, 0.0000000000000000000 ) ) ;
#31 = CC_DESIGN_PERSON_AND_ORGANIZATION_ASSIGNMENT ( #44, #18, ( #3 ) ) ;
#32 = FACE_OUTER_BOUND ( 'NONE', #111, .T. ) ;
#33 = AXIS2_PLACEMENT_3D ( 'NONE', #136, #218, #203 ) ;
#34 = CARTESIAN_POINT ( 'NONE',  ( 5.272136821653131493E-13, -1.849216666712503261E-14, 151.0000000000000000 ) ) ;
#35 = DIRECTION ( 'NONE',  ( -3.491481338843133355E-15, 1.224646799147353207E-16, -1.000000000000000000 ) ) ;
#36 = DIRECTION ( 'NONE',  ( 0.0000000000000000000, 1.000000000000000000, 0.0000000000000000000 ) ) ;
#37 = EDGE_CURVE ( 'NONE', #100, #100, #64, .T. ) ;
#38 = EDGE_LOOP ( 'NONE', ( #234 ) ) ;
#39 = APPROVAL_STATUS ( 'not_yet_approved' ) ;
#40 = EDGE_LOOP ( 'NONE', ( #195 ) ) ;
#41 = APPROVAL ( #264, 'UNSPECIFIED' ) ;
#42 = ORIENTED_EDGE ( 'NONE', *, *, #114, .T. ) ;
#43 = CARTESIAN_POINT ( 'NONE',  ( 7.386718716335056370E-14, -2.590912152822478584E-15, 21.15640325542329947 ) ) ;
#44 = PERSON_AND_ORGANIZATION ( #241, #277 ) ;
#45 = CYLINDRICAL_SURFACE ( 'NONE', #229, 4.749999999999995559 ) ;
#46 = MANIFOLD_SOLID_BREP ( 'Corps-Déplacer/Copier1[2]', #272 ) ;
#47 = MANIFOLD_SOLID_BREP ( 'Corps-Déplacer/Copier1[1]', #225 ) ;
#48 = EDGE_CURVE ( 'NONE', #276, #276, #108, .T. ) ;
#49 = FACE_OUTER_BOUND ( 'NONE', #236, .T. ) ;
#50 = FACE_OUTER_BOUND ( 'NONE', #189, .T. ) ;
#51 = DIRECTION ( 'NONE',  ( -3.491481338843133355E-15, 1.224646799147353207E-16, -1.000000000000000000 ) ) ;
#52 = CYLINDRICAL_SURFACE ( 'NONE', #221, 5.994999999999998330 ) ;
#53 = APPROVAL_PERSON_ORGANIZATION ( #24, #90, #85 ) ;
#54 = DIRECTION ( 'NONE',  ( 0.0000000000000000000, 1.000000000000000000, 0.0000000000000000000 ) ) ;
#55 = DIRECTION ( 'NONE',  ( 3.491481338843133355E-15, -1.224646799147353207E-16, 1.000000000000000000 ) ) ;
#56 = CARTESIAN_POINT ( 'NONE',  ( 1.514188661106529260E-30, 5.495000000000003659, 4.336808689942017736E-16 ) ) ;
#57 = ADVANCED_FACE ( 'NONE', ( #69 ), #117, .F. ) ;
#58 = LOCAL_TIME ( 9, 41, 36.00000000000000000, #238 ) ;
#59 = EDGE_LOOP ( 'NONE', ( #86 ) ) ;
#60 = AXIS2_PLACEMENT_3D ( 'NONE', #43, #200, #99 ) ;
#61 = DATE_AND_TIME ( #83, #281 ) ;
#62 = PERSON_AND_ORGANIZATION_ROLE ( 'creator' ) ;
#63 = ORIENTED_EDGE ( 'NONE', *, *, #163, .F. ) ;
#64 = CIRCLE ( 'NONE', #12, 5.995000000000000107 ) ;
#65 = DIRECTION ( 'NONE',  ( -3.491481338843133355E-15, 1.224646799147353207E-16, -1.000000000000000000 ) ) ;
#66 = APPROVAL_DATE_TIME ( #266, #90 ) ;
#67 = CIRCLE ( 'NONE', #121, 5.994999999999997442 ) ;
#68 = FACE_BOUND ( 'NONE', #59, .T. ) ;
#69 = FACE_OUTER_BOUND ( 'NONE', #81, .T. ) ;
#70 = DIRECTION ( 'NONE',  ( -4.497584524006891520E-31, -1.000000000000000000, -1.265957499149046642E-16 ) ) ;
#71 = DIRECTION ( 'NONE',  ( -4.275831445896958607E-31, -1.000000000000000000, -1.224646799147353207E-16 ) ) ;
#72 = APPROVAL_PERSON_ORGANIZATION ( #174, #41, #194 ) ;
#73 = VERTEX_POINT ( 'NONE', #231 ) ;
#74 = EDGE_CURVE ( 'NONE', #73, #73, #248, .T. ) ;
#75 = CARTESIAN_POINT ( 'NONE',  ( 0.0000000000000000000, 0.0000000000000000000, 0.0000000000000000000 ) ) ;
#76 = EDGE_LOOP ( 'NONE', ( #132 ) ) ;
#77 = FACE_OUTER_BOUND ( 'NONE', #239, .T. ) ;
#78 = ORIENTED_EDGE ( 'NONE', *, *, #116, .F. ) ;
#79 = FACE_OUTER_BOUND ( 'NONE', #17, .T. ) ;
#80 = CC_DESIGN_PERSON_AND_ORGANIZATION_ASSIGNMENT ( #6, #62, ( #237 ) ) ;
#81 = EDGE_LOOP ( 'NONE', ( #211 ) ) ;
#82 = AXIS2_PLACEMENT_3D ( 'NONE', #226, #89, #144 ) ;
#83 = CALENDAR_DATE ( 2021, 2, 12 ) ;
#84 = DESIGN_CONTEXT ( 'detailed design', #22, 'design' ) ;
#85 = APPROVAL_ROLE ( '' ) ;
#86 = ORIENTED_EDGE ( 'NONE', *, *, #135, .T. ) ;
#87 = APPLICATION_PROTOCOL_DEFINITION ( 'international standard', 'config_control_design', 1994, #22 ) ;
#88 =( GEOMETRIC_REPRESENTATION_CONTEXT ( 3 ) GLOBAL_UNCERTAINTY_ASSIGNED_CONTEXT ( ( #112 ) ) GLOBAL_UNIT_ASSIGNED_CONTEXT ( ( #235, #105, #20 ) ) REPRESENTATION_CONTEXT ( 'NONE', 'WORKASPACE' ) );
#89 = DIRECTION ( 'NONE',  ( -3.491481338843133355E-15, 1.224646799147353207E-16, -1.000000000000000000 ) ) ;
#90 = APPROVAL ( #5, 'UNSPECIFIED' ) ;
#91 = MECHANICAL_CONTEXT ( 'NONE', #97, 'mechanical' ) ;
#92 = AXIS2_PLACEMENT_3D ( 'NONE', #125, #55, #149 ) ;
#93 = ADVANCED_FACE ( 'NONE', ( #224, #181 ), #259, .T. ) ;
#94 = DIRECTION ( 'NONE',  ( 0.0000000000000000000, 1.000000000000000000, 0.0000000000000000000 ) ) ;
#95 = DIRECTION ( 'NONE',  ( 0.0000000000000000000, 1.000000000000000000, 0.0000000000000000000 ) ) ;
#96 = ORIENTED_EDGE ( 'NONE', *, *, #116, .T. ) ;
#97 = APPLICATION_CONTEXT ( 'configuration controlled 3d designs of mechanical parts and assemblies' ) ;
#98 = CC_DESIGN_APPROVAL ( #275, ( #251 ) ) ;
#99 = DIRECTION ( 'NONE',  ( 0.0000000000000000000, 1.000000000000000000, 0.0000000000000000000 ) ) ;
#100 = VERTEX_POINT ( 'NONE', #101 ) ;
#101 = CARTESIAN_POINT ( 'NONE',  ( 6.633814543801952113E-14, 5.994999999999997442, 19.00000000000000000 ) ) ;
#102 = VERTEX_POINT ( 'NONE', #56 ) ;
#103 = AXIS2_PLACEMENT_3D ( 'NONE', #201, #138, #182 ) ;
#104 = ORIENTED_EDGE ( 'NONE', *, *, #135, .F. ) ;
#105 =( NAMED_UNIT ( * ) PLANE_ANGLE_UNIT ( ) SI_UNIT ( $, .RADIAN. ) );
#106 = ORIENTED_EDGE ( 'NONE', *, *, #114, .F. ) ;
#107 = TOROIDAL_SURFACE ( 'NONE', #119, 6.750000000000000888, 2.000000000000003109 ) ;
#108 = CIRCLE ( 'NONE', #103, 5.999999999999995559 ) ;
#109 = DATE_AND_TIME ( #19, #209 ) ;
#110 = PRODUCT_DEFINITION_SHAPE ( 'NONE', 'NONE',  #237 ) ;
#111 = EDGE_LOOP ( 'NONE', ( #190 ) ) ;
#112 = UNCERTAINTY_MEASURE_WITH_UNIT (LENGTH_MEASURE( 1.000000000000000082E-05 ), #235, 'distance_accuracy_value', 'NONE');
#113 = DIRECTION ( 'NONE',  ( -3.491481338843133355E-15, 1.224646799147353207E-16, -1.000000000000000000 ) ) ;
#114 = EDGE_CURVE ( 'NONE', #169, #169, #126, .T. ) ;
#115 = CARTESIAN_POINT ( 'NONE',  ( 0.0000000000000000000, 0.0000000000000000000, 0.0000000000000000000 ) ) ;
#116 = EDGE_CURVE ( 'NONE', #257, #257, #183, .T. ) ;
#117 = PLANE ( 'NONE',  #9 ) ;
#118 = PLANE ( 'NONE',  #33 ) ;
#119 = AXIS2_PLACEMENT_3D ( 'NONE', #122, #14, #279 ) ;
#120 = AXIS2_PLACEMENT_3D ( 'NONE', #252, #142, #30 ) ;
#121 = AXIS2_PLACEMENT_3D ( 'NONE', #265, #65, #158 ) ;
#122 = CARTESIAN_POINT ( 'NONE',  ( 3.666055405785289897E-13, -1.301042606982605321E-14, 105.0000000000000000 ) ) ;
#123 = ADVANCED_FACE ( 'NONE', ( #269 ), #118, .T. ) ;
#124 = CARTESIAN_POINT ( 'NONE',  ( 5.237222008264700285E-13, 5.999999999999983125, 150.0000000000000000 ) ) ;
#125 = CARTESIAN_POINT ( 'NONE',  ( -4.176903592069254954E-31, 1.465060562537497305E-32, -1.196312735686345924E-16 ) ) ;
#126 = CIRCLE ( 'NONE', #148, 6.000000000000000888 ) ;
#127 = EDGE_LOOP ( 'NONE', ( #152 ) ) ;
#128 = CARTESIAN_POINT ( 'NONE',  ( 7.386718716335056370E-14, 4.749999999999986677, 21.15640325542329947 ) ) ;
#129 = PERSON_AND_ORGANIZATION ( #241, #277 ) ;
#130 = ORIENTED_EDGE ( 'NONE', *, *, #48, .F. ) ;
#131 = PERSON_AND_ORGANIZATION ( #241, #277 ) ;
#132 = ORIENTED_EDGE ( 'NONE', *, *, #143, .T. ) ;
#133 = APPROVAL_DATE_TIME ( #61, #41 ) ;
#134 = PRODUCT ( '963745', '963745', '', ( #91 ) ) ;
#135 = EDGE_CURVE ( 'NONE', #15, #15, #139, .T. ) ;
#136 = CARTESIAN_POINT ( 'NONE',  ( 6.633814543801952113E-14, 4.495529948528914594E-32, 19.00000000000000000 ) ) ;
#137 = DATE_AND_TIME ( #243, #23 ) ;
#138 = DIRECTION ( 'NONE',  ( -3.491481338843133355E-15, 1.224646799147353207E-16, -1.000000000000000000 ) ) ;
#139 = CIRCLE ( 'NONE', #60, 4.749999999999989342 ) ;
#140 = DIRECTION ( 'NONE',  ( 3.491481338843133355E-15, -1.224646799147353207E-16, 1.000000000000000000 ) ) ;
#141 = LOCAL_TIME ( 9, 41, 36.00000000000000000, #198 ) ;
#142 = DIRECTION ( 'NONE',  ( -3.491481338843133355E-15, 1.224646799147353207E-16, -1.000000000000000000 ) ) ;
#143 = EDGE_CURVE ( 'NONE', #102, #102, #173, .T. ) ;
#144 = DIRECTION ( 'NONE',  ( 0.0000000000000000000, 1.000000000000000000, 0.0000000000000000000 ) ) ;
#145 = DIRECTION ( 'NONE',  ( -3.491481338843133355E-15, 1.224646799147353207E-16, -1.000000000000000000 ) ) ;
#146 = CC_DESIGN_APPROVAL ( #90, ( #3 ) ) ;
#147 = FACE_BOUND ( 'NONE', #38, .T. ) ;
#148 = AXIS2_PLACEMENT_3D ( 'NONE', #4, #51, #28 ) ;
#149 = DIRECTION ( 'NONE',  ( -4.275831445896958607E-31, -1.000000000000000000, -1.224646799147353207E-16 ) ) ;
#150 = VERTEX_POINT ( 'NONE', #233 ) ;
#151 = AXIS2_PLACEMENT_3D ( 'NONE', #256, #212, #228 ) ;
#152 = ORIENTED_EDGE ( 'NONE', *, *, #48, .T. ) ;
#153 = DIRECTION ( 'NONE',  ( 0.0000000000000000000, 0.0000000000000000000, 1.000000000000000000 ) ) ;
#154 = ORIENTED_EDGE ( 'NONE', *, *, #167, .T. ) ;
#155 = CALENDAR_DATE ( 2021, 2, 12 ) ;
#156 = EDGE_LOOP ( 'NONE', ( #63 ) ) ;
#157 = APPROVAL_DATE_TIME ( #137, #275 ) ;
#158 = DIRECTION ( 'NONE',  ( 4.497584524006891520E-31, 1.000000000000000000, 1.265957499149046642E-16 ) ) ;
#159 = SHAPE_DEFINITION_REPRESENTATION ( #110, #213 ) ;
#160 = ADVANCED_FACE ( 'NONE', ( #180 ), #21, .F. ) ;
#161 = AXIS2_PLACEMENT_3D ( 'NONE', #197, #8, #178 ) ;
#162 = CARTESIAN_POINT ( 'NONE',  ( 7.386718716335056370E-14, -2.590912152822478584E-15, 21.15640325542329947 ) ) ;
#163 = EDGE_CURVE ( 'NONE', #150, #150, #67, .T. ) ;
#164 = CARTESIAN_POINT ( 'NONE',  ( 6.633814543801952113E-14, 4.495529948528914594E-32, 19.00000000000000000 ) ) ;
#165 = CARTESIAN_POINT ( 'NONE',  ( 6.633814543801952113E-14, -2.326828918379970970E-15, 19.00000000000000000 ) ) ;
#166 = CARTESIAN_POINT ( 'NONE',  ( 0.0000000000000000000, 0.0000000000000000000, 0.0000000000000000000 ) ) ;
#167 = EDGE_CURVE ( 'NONE', #210, #210, #193, .T. ) ;
#168 = FACE_OUTER_BOUND ( 'NONE', #11, .T. ) ;
#169 = VERTEX_POINT ( 'NONE', #124 ) ;
#170 = FACE_OUTER_BOUND ( 'NONE', #127, .T. ) ;
#171 = EDGE_LOOP ( 'NONE', ( #214 ) ) ;
#172 = COORDINATED_UNIVERSAL_TIME_OFFSET ( 1, 0, .AHEAD. ) ;
#173 = CIRCLE ( 'NONE', #222, 5.495000000000003659 ) ;
#174 = PERSON_AND_ORGANIZATION ( #241, #277 ) ;
#175 = ORIENTED_EDGE ( 'NONE', *, *, #143, .F. ) ;
#176 = COORDINATED_UNIVERSAL_TIME_OFFSET ( 1, 0, .AHEAD. ) ;
#177 = EDGE_LOOP ( 'NONE', ( #78 ) ) ;
#178 = DIRECTION ( 'NONE',  ( 4.275831445896958607E-31, 1.000000000000000000, 1.224646799147353207E-16 ) ) ;
#179 = CALENDAR_DATE ( 2021, 2, 12 ) ;
#180 = FACE_OUTER_BOUND ( 'NONE', #40, .T. ) ;
#181 = FACE_OUTER_BOUND ( 'NONE', #171, .T. ) ;
#182 = DIRECTION ( 'NONE',  ( 0.0000000000000000000, 1.000000000000000000, 0.0000000000000000000 ) ) ;
#183 = CIRCLE ( 'NONE', #82, 5.995000000000000107 ) ;
#184 = CARTESIAN_POINT ( 'NONE',  ( -8.353807184138509908E-31, 2.930121125074994609E-32, -2.392625471372691849E-16 ) ) ;
#185 = ADVANCED_FACE ( 'NONE', ( #268, #68 ), #13, .T. ) ;
#186 = FACE_OUTER_BOUND ( 'NONE', #156, .T. ) ;
#187 = ADVANCED_FACE ( 'NONE', ( #77, #79 ), #188, .T. ) ;
#188 = CYLINDRICAL_SURFACE ( 'NONE', #151, 5.999999999999998224 ) ;
#189 = EDGE_LOOP ( 'NONE', ( #104 ) ) ;
#190 = ORIENTED_EDGE ( 'NONE', *, *, #167, .F. ) ;
#191 = APPROVAL_PERSON_ORGANIZATION ( #240, #275, #2 ) ;
#192 = ADVANCED_FACE ( 'NONE', ( #168, #147 ), #205, .T. ) ;
#193 = CIRCLE ( 'NONE', #230, 4.750000000000000888 ) ;
#194 = APPROVAL_ROLE ( '' ) ;
#195 = ORIENTED_EDGE ( 'NONE', *, *, #74, .F. ) ;
#196 = DATE_TIME_ROLE ( 'creation_date' ) ;
#197 = CARTESIAN_POINT ( 'NONE',  ( 5.272136821653131493E-13, 3.749399456654617198E-32, 151.0000000000000000 ) ) ;
#198 = COORDINATED_UNIVERSAL_TIME_OFFSET ( 1, 0, .AHEAD. ) ;
#199 = PERSON_AND_ORGANIZATION_ROLE ( 'design_supplier' ) ;
#200 = DIRECTION ( 'NONE',  ( -3.491481338843133355E-15, 1.224646799147353207E-16, -1.000000000000000000 ) ) ;
#201 = CARTESIAN_POINT ( 'NONE',  ( 3.730789202342417614E-13, -1.308584698452378832E-14, 106.8540496217739104 ) ) ;
#202 = CARTESIAN_POINT ( 'NONE',  ( 1.745740669421564508E-15, -6.123233995736758640E-17, 0.4999999999999993339 ) ) ;
#203 = DIRECTION ( 'NONE',  ( -4.275831445896958607E-31, -1.000000000000000000, -1.224646799147353207E-16 ) ) ;
#204 = CC_DESIGN_APPROVAL ( #41, ( #237 ) ) ;
#205 = CONICAL_SURFACE ( 'NONE', #283, 5.000000000000000888, 0.7853981633974479459 ) ;
#206 = PLANE ( 'NONE',  #92 ) ;
#207 = DIRECTION ( 'NONE',  ( 4.275831445896958607E-31, 1.000000000000000000, 1.224646799147353207E-16 ) ) ;
#208 = CARTESIAN_POINT ( 'NONE',  ( 6.633814543801952113E-14, 5.994999999999997442, 19.00000000000000000 ) ) ;
#209 = LOCAL_TIME ( 9, 41, 36.00000000000000000, #216 ) ;
#210 = VERTEX_POINT ( 'NONE', #16 ) ;
#211 = ORIENTED_EDGE ( 'NONE', *, *, #37, .T. ) ;
#212 = DIRECTION ( 'NONE',  ( -3.491481338843133355E-15, 1.224646799147353207E-16, -1.000000000000000000 ) ) ;
#213 = ADVANCED_BREP_SHAPE_REPRESENTATION ( '963745', ( #47, #46, #242 ), #88 ) ;
#214 = ORIENTED_EDGE ( 'NONE', *, *, #163, .T. ) ;
#215 = PERSON_AND_ORGANIZATION_ROLE ( 'creator' ) ;
#216 = COORDINATED_UNIVERSAL_TIME_OFFSET ( 1, 0, .AHEAD. ) ;
#217 = PERSON_AND_ORGANIZATION_ROLE ( 'design_owner' ) ;
#218 = DIRECTION ( 'NONE',  ( 3.491481338843133355E-15, -1.224646799147353207E-16, 1.000000000000000000 ) ) ;
#219 = DATE_TIME_ROLE ( 'classification_date' ) ;
#220 = CC_DESIGN_PERSON_AND_ORGANIZATION_ASSIGNMENT ( #131, #199, ( #251 ) ) ;
#221 = AXIS2_PLACEMENT_3D ( 'NONE', #75, #145, #207 ) ;
#222 = AXIS2_PLACEMENT_3D ( 'NONE', #184, #247, #273 ) ;
#223 = CARTESIAN_POINT ( 'NONE',  ( 3.666055405785289897E-13, -1.285879139104720791E-14, 105.0000000000000000 ) ) ;
#224 = FACE_BOUND ( 'NONE', #244, .T. ) ;
#225 = CLOSED_SHELL ( 'NONE', ( #57, #185, #7, #253, #187, #192, #160 ) ) ;
#226 = CARTESIAN_POINT ( 'NONE',  ( 6.633814543801952113E-14, -2.326828918379970970E-15, 19.00000000000000000 ) ) ;
#227 = DIRECTION ( 'NONE',  ( 3.491481338843133355E-15, -1.224646799147353207E-16, 1.000000000000000000 ) ) ;
#228 = DIRECTION ( 'NONE',  ( 4.275831445896958607E-31, 1.000000000000000000, 1.224646799147353207E-16 ) ) ;
#229 = AXIS2_PLACEMENT_3D ( 'NONE', #166, #10, #271 ) ;
#230 = AXIS2_PLACEMENT_3D ( 'NONE', #223, #26, #94 ) ;
#231 = CARTESIAN_POINT ( 'NONE',  ( 5.272136821653131493E-13, 4.999999999999983125, 151.0000000000000000 ) ) ;
#232 = ADVANCED_FACE ( 'NONE', ( #186, #254 ), #52, .T. ) ;
#233 = CARTESIAN_POINT ( 'NONE',  ( 1.745740669421567072E-15, 5.994999999999997442, 0.5000000000000001110 ) ) ;
#234 = ORIENTED_EDGE ( 'NONE', *, *, #74, .T. ) ;
#235 =( LENGTH_UNIT ( ) NAMED_UNIT ( * ) SI_UNIT ( .MILLI., .METRE. ) );
#236 = EDGE_LOOP ( 'NONE', ( #154 ) ) ;
#237 = PRODUCT_DEFINITION ( 'UNKNOWN', '', #251, #84 ) ;
#238 = COORDINATED_UNIVERSAL_TIME_OFFSET ( 1, 0, .AHEAD. ) ;
#239 = EDGE_LOOP ( 'NONE', ( #130 ) ) ;
#240 = PERSON_AND_ORGANIZATION ( #241, #277 ) ;
#241 = PERSON ( 'UNSPECIFIED', 'UNSPECIFIED', 'UNSPECIFIED', ('UNSPECIFIED'), ('UNSPECIFIED'), ('UNSPECIFIED') ) ;
#242 = AXIS2_PLACEMENT_3D ( 'NONE', #115, #153, #282 ) ;
#243 = CALENDAR_DATE ( 2021, 2, 12 ) ;
#244 = EDGE_LOOP ( 'NONE', ( #175 ) ) ;
#245 = SECURITY_CLASSIFICATION_LEVEL ( 'unclassified' ) ;
#246 = CC_DESIGN_DATE_AND_TIME_ASSIGNMENT ( #109, #219, ( #3 ) ) ;
#247 = DIRECTION ( 'NONE',  ( -3.491481338843133355E-15, 1.224646799147353207E-16, -1.000000000000000000 ) ) ;
#248 = CIRCLE ( 'NONE', #120, 5.000000000000000888 ) ;
#249 = AXIS2_PLACEMENT_3D ( 'NONE', #202, #227, #70 ) ;
#250 = ADVANCED_FACE ( 'NONE', ( #255 ), #206, .F. ) ;
#251 = PRODUCT_DEFINITION_FORMATION_WITH_SPECIFIED_SOURCE ( 'ANY', '', #134, .NOT_KNOWN. ) ;
#252 = CARTESIAN_POINT ( 'NONE',  ( 5.272136821653131493E-13, -1.849216666712503261E-14, 151.0000000000000000 ) ) ;
#253 = ADVANCED_FACE ( 'NONE', ( #32, #170 ), #107, .F. ) ;
#254 = FACE_OUTER_BOUND ( 'NONE', #262, .T. ) ;
#255 = FACE_OUTER_BOUND ( 'NONE', #76, .T. ) ;
#256 = CARTESIAN_POINT ( 'NONE',  ( 0.0000000000000000000, 0.0000000000000000000, 0.0000000000000000000 ) ) ;
#257 = VERTEX_POINT ( 'NONE', #208 ) ;
#258 = ORIENTED_EDGE ( 'NONE', *, *, #37, .F. ) ;
#259 = CONICAL_SURFACE ( 'NONE', #249, 5.994999999999997442, 0.7853981633974430610 ) ;
#260 = PERSON_AND_ORGANIZATION ( #241, #277 ) ;
#261 = APPLICATION_PROTOCOL_DEFINITION ( 'international standard', 'config_control_design', 1994, #97 ) ;
#262 = EDGE_LOOP ( 'NONE', ( #96 ) ) ;
#263 = CC_DESIGN_PERSON_AND_ORGANIZATION_ASSIGNMENT ( #260, #215, ( #251 ) ) ;
#264 = APPROVAL_STATUS ( 'not_yet_approved' ) ;
#265 = CARTESIAN_POINT ( 'NONE',  ( 1.745740669421564508E-15, -6.123233995736758640E-17, 0.4999999999999993339 ) ) ;
#266 = DATE_AND_TIME ( #179, #141 ) ;
#267 = PRODUCT_RELATED_PRODUCT_CATEGORY ( 'detail', '', ( #134 ) ) ;
#268 = FACE_OUTER_BOUND ( 'NONE', #280, .T. ) ;
#269 = FACE_OUTER_BOUND ( 'NONE', #177, .T. ) ;
#270 = CC_DESIGN_PERSON_AND_ORGANIZATION_ASSIGNMENT ( #129, #217, ( #134 ) ) ;
#271 = DIRECTION ( 'NONE',  ( 4.275831445896958607E-31, 1.000000000000000000, 1.224646799147353207E-16 ) ) ;
#272 = CLOSED_SHELL ( 'NONE', ( #250, #93, #232, #123 ) ) ;
#273 = DIRECTION ( 'NONE',  ( 4.275831445896958607E-31, 1.000000000000000000, 1.224646799147353207E-16 ) ) ;
#274 = DIRECTION ( 'NONE',  ( -3.491481338843133355E-15, 1.224646799147353207E-16, -1.000000000000000000 ) ) ;
#275 = APPROVAL ( #39, 'UNSPECIFIED' ) ;
#276 = VERTEX_POINT ( 'NONE', #278 ) ;
#277 = ORGANIZATION ( 'UNSPECIFIED', 'UNSPECIFIED', '' ) ;
#278 = CARTESIAN_POINT ( 'NONE',  ( 3.730789202342417614E-13, 5.999999999999983125, 106.8540496217739104 ) ) ;
#279 = DIRECTION ( 'NONE',  ( 4.275831445896958607E-31, 1.000000000000000000, 1.224646799147353207E-16 ) ) ;
#280 = EDGE_LOOP ( 'NONE', ( #258 ) ) ;
#281 = LOCAL_TIME ( 9, 41, 36.00000000000000000, #176 ) ;
#282 = DIRECTION ( 'NONE',  ( 1.000000000000000000, 0.0000000000000000000, 0.0000000000000000000 ) ) ;
#283 = AXIS2_PLACEMENT_3D ( 'NONE', #34, #274, #36 ) ;
ENDSEC;
END-ISO-10303-21;
