ISO-10303-21;
HEADER;
FILE_DESCRIPTION (( 'STEP AP203' ),
    '1' );
FILE_NAME ('963744.step',
    '2021-12-02T08:41:35',
    ( '' ),
    ( '' ),
    'SwSTEP 2.0',
    'SolidWorks 2019',
    '' );
FILE_SCHEMA (( 'CONFIG_CONTROL_DESIGN' ));
ENDSEC;

DATA;
#1 = DIRECTION ( 'NONE',  ( 4.501338768183858740E-31, 1.000000000000000000, 1.267014224941324606E-16 ) ) ;
#2 = VERTEX_POINT ( 'NONE', #165 ) ;
#3 = CONICAL_SURFACE ( 'NONE', #158, 5.989999999999997549, 0.7853981633974426169 ) ;
#4 = EDGE_CURVE ( 'NONE', #42, #42, #185, .T. ) ;
#5 = PERSON_AND_ORGANIZATION_ROLE ( 'classification_officer' ) ;
#6 = PERSON_AND_ORGANIZATION_ROLE ( 'design_owner' ) ;
#7 = PERSON_AND_ORGANIZATION ( #257, #147 ) ;
#8 = ORIENTED_EDGE ( 'NONE', *, *, #238, .F. ) ;
#9 = ORIENTED_EDGE ( 'NONE', *, *, #273, .F. ) ;
#10 = FACE_OUTER_BOUND ( 'NONE', #91, .T. ) ;
#11 = EDGE_CURVE ( 'NONE', #148, #148, #114, .T. ) ;
#12 = DIRECTION ( 'NONE',  ( -3.491481338843133355E-15, 1.224646799147353207E-16, -1.000000000000000000 ) ) ;
#13 = CARTESIAN_POINT ( 'NONE',  ( 6.633814543801952113E-14, -2.326828918379970970E-15, 19.00000000000000000 ) ) ;
#14 = ORIENTED_EDGE ( 'NONE', *, *, #222, .F. ) ;
#15 = ORIENTED_EDGE ( 'NONE', *, *, #244, .T. ) ;
#16 = CIRCLE ( 'NONE', #201, 5.000000000000000888 ) ;
#17 = DIRECTION ( 'NONE',  ( -3.491481338843133355E-15, 1.224646799147353207E-16, -1.000000000000000000 ) ) ;
#18 = APPLICATION_CONTEXT ( 'configuration controlled 3d designs of mechanical parts and assemblies' ) ;
#19 = CARTESIAN_POINT ( 'NONE',  ( 5.237222008264700285E-13, 5.999999999999983125, 150.0000000000000000 ) ) ;
#20 = CARTESIAN_POINT ( 'NONE',  ( 1.745740669421564508E-15, -6.123233995736758640E-17, 0.4999999999999993339 ) ) ;
#21 = CARTESIAN_POINT ( 'NONE',  ( -3.421138828918010427E-46, 5.490000000000003766, 0.0000000000000000000 ) ) ;
#22 = CARTESIAN_POINT ( 'NONE',  ( 7.383695004798779497E-14, -2.589851577583753934E-15, 21.14774300138545371 ) ) ;
#23 = APPROVAL_ROLE ( '' ) ;
#24 = EDGE_CURVE ( 'NONE', #2, #2, #127, .T. ) ;
#25 = AXIS2_PLACEMENT_3D ( 'NONE', #126, #171, #1 ) ;
#26 = DATE_AND_TIME ( #266, #205 ) ;
#27 = COORDINATED_UNIVERSAL_TIME_OFFSET ( 1, 0, .AHEAD. ) ;
#28 = ORIENTED_EDGE ( 'NONE', *, *, #222, .T. ) ;
#29 = CC_DESIGN_PERSON_AND_ORGANIZATION_ASSIGNMENT ( #94, #6, ( #64 ) ) ;
#30 = CC_DESIGN_APPROVAL ( #235, ( #233 ) ) ;
#31 = CC_DESIGN_APPROVAL ( #194, ( #149 ) ) ;
#32 = DIRECTION ( 'NONE',  ( -4.275831445896958607E-31, -1.000000000000000000, -1.224646799147353207E-16 ) ) ;
#33 = APPROVAL_PERSON_ORGANIZATION ( #7, #235, #269 ) ;
#34 = FACE_OUTER_BOUND ( 'NONE', #276, .T. ) ;
#35 = FACE_BOUND ( 'NONE', #176, .T. ) ;
#36 = CC_DESIGN_PERSON_AND_ORGANIZATION_ASSIGNMENT ( #246, #5, ( #149 ) ) ;
#37 = PLANE ( 'NONE',  #190 ) ;
#38 = DIRECTION ( 'NONE',  ( 3.491481338843133355E-15, -1.224646799147353207E-16, 1.000000000000000000 ) ) ;
#39 = CARTESIAN_POINT ( 'NONE',  ( 6.633814543801952113E-14, 5.989999999999997549, 19.00000000000000000 ) ) ;
#40 = ADVANCED_FACE ( 'NONE', ( #104, #227 ), #68, .T. ) ;
#41 = DIRECTION ( 'NONE',  ( 0.0000000000000000000, 1.000000000000000000, 0.0000000000000000000 ) ) ;
#42 = VERTEX_POINT ( 'NONE', #21 ) ;
#43 = DATE_AND_TIME ( #216, #115 ) ;
#44 = CARTESIAN_POINT ( 'NONE',  ( 5.272136821653131493E-13, 4.999999999999983125, 151.0000000000000000 ) ) ;
#45 = ADVANCED_FACE ( 'NONE', ( #163 ), #142, .F. ) ;
#46 = CYLINDRICAL_SURFACE ( 'NONE', #225, 5.989999999999998437 ) ;
#47 = DATE_AND_TIME ( #72, #80 ) ;
#48 = CALENDAR_DATE ( 2021, 2, 12 ) ;
#49 = EDGE_LOOP ( 'NONE', ( #14 ) ) ;
#50 = CLOSED_SHELL ( 'NONE', ( #54, #280, #184, #79 ) ) ;
#51 = EDGE_LOOP ( 'NONE', ( #60 ) ) ;
#52 = EDGE_LOOP ( 'NONE', ( #245 ) ) ;
#53 = EDGE_LOOP ( 'NONE', ( #173 ) ) ;
#54 = ADVANCED_FACE ( 'NONE', ( #59 ), #78, .F. ) ;
#55 = ORIENTED_EDGE ( 'NONE', *, *, #145, .T. ) ;
#56 = DIRECTION ( 'NONE',  ( 0.0000000000000000000, 1.000000000000000000, 0.0000000000000000000 ) ) ;
#57 = DESIGN_CONTEXT ( 'detailed design', #18, 'design' ) ;
#58 = TOROIDAL_SURFACE ( 'NONE', #118, 6.750000000000000888, 2.000000000000003109 ) ;
#59 = FACE_OUTER_BOUND ( 'NONE', #51, .T. ) ;
#60 = ORIENTED_EDGE ( 'NONE', *, *, #4, .T. ) ;
#61 = DIRECTION ( 'NONE',  ( -3.491481338843133355E-15, 1.224646799147353207E-16, -1.000000000000000000 ) ) ;
#62 = DIRECTION ( 'NONE',  ( 3.491481338843133355E-15, -1.224646799147353207E-16, 1.000000000000000000 ) ) ;
#63 = AXIS2_PLACEMENT_3D ( 'NONE', #164, #232, #161 ) ;
#64 = PRODUCT ( '963744', '963744', '', ( #130 ) ) ;
#65 = DIRECTION ( 'NONE',  ( 4.275831445896958607E-31, 1.000000000000000000, 1.224646799147353207E-16 ) ) ;
#66 = PERSON_AND_ORGANIZATION_ROLE ( 'creator' ) ;
#67 = FACE_OUTER_BOUND ( 'NONE', #267, .T. ) ;
#68 = CONICAL_SURFACE ( 'NONE', #90, 4.749999999999989342, 0.5235987755982932645 ) ;
#69 = CARTESIAN_POINT ( 'NONE',  ( 3.730789202342417614E-13, 5.999999999999983125, 106.8540496217739104 ) ) ;
#70 = DATE_AND_TIME ( #48, #155 ) ;
#71 = ORIENTED_EDGE ( 'NONE', *, *, #238, .T. ) ;
#72 = CALENDAR_DATE ( 2021, 2, 12 ) ;
#73 = AXIS2_PLACEMENT_3D ( 'NONE', #187, #281, #214 ) ;
#74 = ORIENTED_EDGE ( 'NONE', *, *, #11, .T. ) ;
#75 = ADVANCED_FACE ( 'NONE', ( #10, #259 ), #230, .T. ) ;
#76 = DIRECTION ( 'NONE',  ( -3.491481338843133355E-15, 1.224646799147353207E-16, -1.000000000000000000 ) ) ;
#77 = DIRECTION ( 'NONE',  ( -3.491481338843133355E-15, 1.224646799147353207E-16, -1.000000000000000000 ) ) ;
#78 = PLANE ( 'NONE',  #220 ) ;
#79 = ADVANCED_FACE ( 'NONE', ( #255 ), #37, .T. ) ;
#80 = LOCAL_TIME ( 9, 41, 35.00000000000000000, #219 ) ;
#81 = CARTESIAN_POINT ( 'NONE',  ( 5.272136821653131493E-13, 3.749399456654617198E-32, 151.0000000000000000 ) ) ;
#82 = DIRECTION ( 'NONE',  ( -4.275831445896958607E-31, -1.000000000000000000, -1.224646799147353207E-16 ) ) ;
#83 = CARTESIAN_POINT ( 'NONE',  ( 5.272136821653131493E-13, -1.849216666712503261E-14, 151.0000000000000000 ) ) ;
#84 = CC_DESIGN_PERSON_AND_ORGANIZATION_ASSIGNMENT ( #125, #66, ( #233 ) ) ;
#85 = AXIS2_PLACEMENT_3D ( 'NONE', #199, #131, #93 ) ;
#86 = APPLICATION_CONTEXT ( 'configuration controlled 3d designs of mechanical parts and assemblies' ) ;
#87 = DIRECTION ( 'NONE',  ( 0.0000000000000000000, 1.000000000000000000, 0.0000000000000000000 ) ) ;
#88 = CC_DESIGN_PERSON_AND_ORGANIZATION_ASSIGNMENT ( #200, #175, ( #250 ) ) ;
#89 = VERTEX_POINT ( 'NONE', #69 ) ;
#90 = AXIS2_PLACEMENT_3D ( 'NONE', #279, #61, #101 ) ;
#91 = EDGE_LOOP ( 'NONE', ( #8 ) ) ;
#92 = CALENDAR_DATE ( 2021, 2, 12 ) ;
#93 = DIRECTION ( 'NONE',  ( 1.000000000000000000, 0.0000000000000000000, 0.0000000000000000000 ) ) ;
#94 = PERSON_AND_ORGANIZATION ( #257, #147 ) ;
#95 = EDGE_LOOP ( 'NONE', ( #15 ) ) ;
#96 =( GEOMETRIC_REPRESENTATION_CONTEXT ( 3 ) GLOBAL_UNCERTAINTY_ASSIGNED_CONTEXT ( ( #206 ) ) GLOBAL_UNIT_ASSIGNED_CONTEXT ( ( #168, #129, #236 ) ) REPRESENTATION_CONTEXT ( 'NONE', 'WORKASPACE' ) );
#97 = ADVANCED_FACE ( 'NONE', ( #141, #35 ), #99, .T. ) ;
#98 = CARTESIAN_POINT ( 'NONE',  ( 0.0000000000000000000, 0.0000000000000000000, 0.0000000000000000000 ) ) ;
#99 = CONICAL_SURFACE ( 'NONE', #229, 5.000000000000000888, 0.7853981633974479459 ) ;
#100 = DIRECTION ( 'NONE',  ( -3.491481338843133355E-15, 1.224646799147353207E-16, -1.000000000000000000 ) ) ;
#101 = DIRECTION ( 'NONE',  ( 0.0000000000000000000, 1.000000000000000000, 0.0000000000000000000 ) ) ;
#102 = DIRECTION ( 'NONE',  ( -3.491481338843133355E-15, 1.224646799147353207E-16, -1.000000000000000000 ) ) ;
#103 = CIRCLE ( 'NONE', #251, 5.999999999999995559 ) ;
#104 = FACE_OUTER_BOUND ( 'NONE', #53, .T. ) ;
#105 = DIRECTION ( 'NONE',  ( 4.275831445896958607E-31, 1.000000000000000000, 1.224646799147353207E-16 ) ) ;
#106 = CARTESIAN_POINT ( 'NONE',  ( 3.666055405785289897E-13, -1.301042606982605321E-14, 105.0000000000000000 ) ) ;
#107 = SECURITY_CLASSIFICATION_LEVEL ( 'unclassified' ) ;
#108 = CARTESIAN_POINT ( 'NONE',  ( 1.745740669421567072E-15, 5.989999999999997549, 0.5000000000000001110 ) ) ;
#109 = PLANE ( 'NONE',  #277 ) ;
#110 = FACE_OUTER_BOUND ( 'NONE', #120, .T. ) ;
#111 = COORDINATED_UNIVERSAL_TIME_OFFSET ( 1, 0, .AHEAD. ) ;
#112 = APPROVAL_DATE_TIME ( #26, #167 ) ;
#113 = APPROVAL_ROLE ( '' ) ;
#114 = CIRCLE ( 'NONE', #132, 5.990000000000000213 ) ;
#115 = LOCAL_TIME ( 9, 41, 35.00000000000000000, #111 ) ;
#116 = CC_DESIGN_PERSON_AND_ORGANIZATION_ASSIGNMENT ( #198, #241, ( #233 ) ) ;
#117 = CARTESIAN_POINT ( 'NONE',  ( 3.666055405785289897E-13, -1.285879139104720791E-14, 105.0000000000000000 ) ) ;
#118 = AXIS2_PLACEMENT_3D ( 'NONE', #106, #283, #65 ) ;
#119 = CARTESIAN_POINT ( 'NONE',  ( 6.633814543801952113E-14, -2.326828918379970970E-15, 19.00000000000000000 ) ) ;
#120 = EDGE_LOOP ( 'NONE', ( #28 ) ) ;
#121 = ORIENTED_EDGE ( 'NONE', *, *, #244, .F. ) ;
#122 = CIRCLE ( 'NONE', #25, 5.989999999999997549 ) ;
#123 = CARTESIAN_POINT ( 'NONE',  ( 5.272136821653131493E-13, -1.849216666712503261E-14, 151.0000000000000000 ) ) ;
#124 = CARTESIAN_POINT ( 'NONE',  ( 3.666055405785289897E-13, 4.749999999999987566, 105.0000000000000000 ) ) ;
#125 = PERSON_AND_ORGANIZATION ( #257, #147 ) ;
#126 = CARTESIAN_POINT ( 'NONE',  ( 1.745740669421564508E-15, -6.123233995736758640E-17, 0.4999999999999993339 ) ) ;
#127 = CIRCLE ( 'NONE', #179, 5.990000000000000213 ) ;
#128 = DATE_TIME_ROLE ( 'classification_date' ) ;
#129 =( NAMED_UNIT ( * ) PLANE_ANGLE_UNIT ( ) SI_UNIT ( $, .RADIAN. ) );
#130 = MECHANICAL_CONTEXT ( 'NONE', #86, 'mechanical' ) ;
#131 = DIRECTION ( 'NONE',  ( 0.0000000000000000000, 0.0000000000000000000, 1.000000000000000000 ) ) ;
#132 = AXIS2_PLACEMENT_3D ( 'NONE', #13, #12, #275 ) ;
#133 = ADVANCED_FACE ( 'NONE', ( #139, #208 ), #140, .T. ) ;
#134 = APPROVAL_STATUS ( 'not_yet_approved' ) ;
#135 = EDGE_LOOP ( 'NONE', ( #274 ) ) ;
#136 = EDGE_LOOP ( 'NONE', ( #224 ) ) ;
#137 = EDGE_CURVE ( 'NONE', #89, #89, #103, .T. ) ;
#138 = AXIS2_PLACEMENT_3D ( 'NONE', #81, #100, #143 ) ;
#139 = FACE_OUTER_BOUND ( 'NONE', #52, .T. ) ;
#140 = CYLINDRICAL_SURFACE ( 'NONE', #166, 5.999999999999998224 ) ;
#141 = FACE_OUTER_BOUND ( 'NONE', #247, .T. ) ;
#142 = PLANE ( 'NONE',  #138 ) ;
#143 = DIRECTION ( 'NONE',  ( 4.275831445896958607E-31, 1.000000000000000000, 1.224646799147353207E-16 ) ) ;
#144 = VERTEX_POINT ( 'NONE', #124 ) ;
#145 = EDGE_CURVE ( 'NONE', #144, #144, #202, .T. ) ;
#146 = APPROVAL_STATUS ( 'not_yet_approved' ) ;
#147 = ORGANIZATION ( 'UNSPECIFIED', 'UNSPECIFIED', '' ) ;
#148 = VERTEX_POINT ( 'NONE', #39 ) ;
#149 = SECURITY_CLASSIFICATION ( '', '', #107 ) ;
#150 = COORDINATED_UNIVERSAL_TIME_OFFSET ( 1, 0, .AHEAD. ) ;
#151 = FACE_OUTER_BOUND ( 'NONE', #270, .T. ) ;
#152 = DATE_TIME_ROLE ( 'creation_date' ) ;
#153 = ADVANCED_BREP_SHAPE_REPRESENTATION ( '963744', ( #188, #197, #85 ), #96 ) ;
#154 = APPLICATION_PROTOCOL_DEFINITION ( 'international standard', 'config_control_design', 1994, #18 ) ;
#155 = LOCAL_TIME ( 9, 41, 35.00000000000000000, #27 ) ;
#156 = ORIENTED_EDGE ( 'NONE', *, *, #24, .F. ) ;
#157 = ADVANCED_FACE ( 'NONE', ( #34, #151 ), #58, .F. ) ;
#158 = AXIS2_PLACEMENT_3D ( 'NONE', #20, #62, #193 ) ;
#159 = CARTESIAN_POINT ( 'NONE',  ( 3.730789202342417614E-13, -1.308584698452378832E-14, 106.8540496217739104 ) ) ;
#160 = DIRECTION ( 'NONE',  ( -3.491481338843133355E-15, 1.224646799147353207E-16, -1.000000000000000000 ) ) ;
#161 = DIRECTION ( 'NONE',  ( 4.275831445896958607E-31, 1.000000000000000000, 1.224646799147353207E-16 ) ) ;
#162 = AXIS2_PLACEMENT_3D ( 'NONE', #117, #160, #228 ) ;
#163 = FACE_OUTER_BOUND ( 'NONE', #249, .T. ) ;
#164 = CARTESIAN_POINT ( 'NONE',  ( 0.0000000000000000000, 0.0000000000000000000, 0.0000000000000000000 ) ) ;
#165 = CARTESIAN_POINT ( 'NONE',  ( 6.633814543801952113E-14, 5.989999999999997549, 19.00000000000000000 ) ) ;
#166 = AXIS2_PLACEMENT_3D ( 'NONE', #98, #178, #272 ) ;
#167 = APPROVAL ( #134, 'UNSPECIFIED' ) ;
#168 =( LENGTH_UNIT ( ) NAMED_UNIT ( * ) SI_UNIT ( .MILLI., .METRE. ) );
#169 = VERTEX_POINT ( 'NONE', #108 ) ;
#170 = AXIS2_PLACEMENT_3D ( 'NONE', #207, #102, #183 ) ;
#171 = DIRECTION ( 'NONE',  ( -3.491481338843133355E-15, 1.224646799147353207E-16, -1.000000000000000000 ) ) ;
#172 = PERSON_AND_ORGANIZATION ( #257, #147 ) ;
#173 = ORIENTED_EDGE ( 'NONE', *, *, #11, .F. ) ;
#174 = DATE_AND_TIME ( #92, #239 ) ;
#175 = PERSON_AND_ORGANIZATION_ROLE ( 'creator' ) ;
#176 = EDGE_LOOP ( 'NONE', ( #177 ) ) ;
#177 = ORIENTED_EDGE ( 'NONE', *, *, #273, .T. ) ;
#178 = DIRECTION ( 'NONE',  ( -3.491481338843133355E-15, 1.224646799147353207E-16, -1.000000000000000000 ) ) ;
#179 = AXIS2_PLACEMENT_3D ( 'NONE', #119, #186, #258 ) ;
#180 = ADVANCED_FACE ( 'NONE', ( #67 ), #109, .F. ) ;
#181 = CARTESIAN_POINT ( 'NONE',  ( -1.173715731898716065E-30, 4.116840603406801816E-32, -3.361655463659486601E-16 ) ) ;
#182 = PRODUCT_DEFINITION_SHAPE ( 'NONE', 'NONE',  #250 ) ;
#183 = DIRECTION ( 'NONE',  ( 4.275831445896958607E-31, 1.000000000000000000, 1.224646799147353207E-16 ) ) ;
#184 = ADVANCED_FACE ( 'NONE', ( #237, #264 ), #46, .T. ) ;
#185 = CIRCLE ( 'NONE', #170, 5.490000000000003766 ) ;
#186 = DIRECTION ( 'NONE',  ( -3.491481338843133355E-15, 1.224646799147353207E-16, -1.000000000000000000 ) ) ;
#187 = CARTESIAN_POINT ( 'NONE',  ( 5.237222008264700285E-13, -1.836970198721029747E-14, 150.0000000000000000 ) ) ;
#188 = MANIFOLD_SOLID_BREP ( 'Corps-Déplacer/Copier1[1]', #210 ) ;
#189 = PRODUCT_RELATED_PRODUCT_CATEGORY ( 'detail', '', ( #64 ) ) ;
#190 = AXIS2_PLACEMENT_3D ( 'NONE', #209, #38, #32 ) ;
#191 = CARTESIAN_POINT ( 'NONE',  ( 7.383695004798779497E-14, 4.749999999999986677, 21.14774300138545371 ) ) ;
#192 = CARTESIAN_POINT ( 'NONE',  ( 6.633814543801952113E-14, 4.491780549072260196E-32, 19.00000000000000000 ) ) ;
#193 = DIRECTION ( 'NONE',  ( -4.501338768183858740E-31, -1.000000000000000000, -1.267014224941324606E-16 ) ) ;
#194 = APPROVAL ( #146, 'UNSPECIFIED' ) ;
#195 = SHAPE_DEFINITION_REPRESENTATION ( #182, #153 ) ;
#196 = APPLICATION_PROTOCOL_DEFINITION ( 'international standard', 'config_control_design', 1994, #86 ) ;
#197 = MANIFOLD_SOLID_BREP ( 'Corps-Déplacer/Copier1[2]', #50 ) ;
#198 = PERSON_AND_ORGANIZATION ( #257, #147 ) ;
#199 = CARTESIAN_POINT ( 'NONE',  ( 0.0000000000000000000, 0.0000000000000000000, 0.0000000000000000000 ) ) ;
#200 = PERSON_AND_ORGANIZATION ( #257, #147 ) ;
#201 = AXIS2_PLACEMENT_3D ( 'NONE', #83, #265, #41 ) ;
#202 = CIRCLE ( 'NONE', #162, 4.750000000000000888 ) ;
#203 = ORIENTED_EDGE ( 'NONE', *, *, #145, .F. ) ;
#204 = EDGE_LOOP ( 'NONE', ( #55 ) ) ;
#205 = LOCAL_TIME ( 9, 41, 35.00000000000000000, #243 ) ;
#206 = UNCERTAINTY_MEASURE_WITH_UNIT (LENGTH_MEASURE( 1.000000000000000082E-05 ), #168, 'distance_accuracy_value', 'NONE');
#207 = CARTESIAN_POINT ( 'NONE',  ( -2.347431463797432130E-30, 8.233681206813603631E-32, -6.723310927318973202E-16 ) ) ;
#208 = FACE_OUTER_BOUND ( 'NONE', #95, .T. ) ;
#209 = CARTESIAN_POINT ( 'NONE',  ( 6.633814543801952113E-14, 4.491780549072260196E-32, 19.00000000000000000 ) ) ;
#210 = CLOSED_SHELL ( 'NONE', ( #180, #40, #75, #157, #133, #97, #45 ) ) ;
#211 = CARTESIAN_POINT ( 'NONE',  ( 0.0000000000000000000, 0.0000000000000000000, 0.0000000000000000000 ) ) ;
#212 = VERTEX_POINT ( 'NONE', #19 ) ;
#213 = PERSON_AND_ORGANIZATION ( #257, #147 ) ;
#214 = DIRECTION ( 'NONE',  ( 0.0000000000000000000, 1.000000000000000000, 0.0000000000000000000 ) ) ;
#215 = AXIS2_PLACEMENT_3D ( 'NONE', #22, #217, #87 ) ;
#216 = CALENDAR_DATE ( 2021, 2, 12 ) ;
#217 = DIRECTION ( 'NONE',  ( -3.491481338843133355E-15, 1.224646799147353207E-16, -1.000000000000000000 ) ) ;
#218 = VERTEX_POINT ( 'NONE', #44 ) ;
#219 = COORDINATED_UNIVERSAL_TIME_OFFSET ( 1, 0, .AHEAD. ) ;
#220 = AXIS2_PLACEMENT_3D ( 'NONE', #181, #253, #82 ) ;
#221 = APPROVAL_STATUS ( 'not_yet_approved' ) ;
#222 = EDGE_CURVE ( 'NONE', #169, #169, #122, .T. ) ;
#223 = EDGE_LOOP ( 'NONE', ( #71 ) ) ;
#224 = ORIENTED_EDGE ( 'NONE', *, *, #24, .T. ) ;
#225 = AXIS2_PLACEMENT_3D ( 'NONE', #211, #17, #105 ) ;
#226 = APPROVAL_PERSON_ORGANIZATION ( #213, #194, #23 ) ;
#227 = FACE_BOUND ( 'NONE', #223, .T. ) ;
#228 = DIRECTION ( 'NONE',  ( 0.0000000000000000000, 1.000000000000000000, 0.0000000000000000000 ) ) ;
#229 = AXIS2_PLACEMENT_3D ( 'NONE', #123, #76, #56 ) ;
#230 = CYLINDRICAL_SURFACE ( 'NONE', #63, 4.749999999999995559 ) ;
#231 = EDGE_LOOP ( 'NONE', ( #156 ) ) ;
#232 = DIRECTION ( 'NONE',  ( -3.491481338843133355E-15, 1.224646799147353207E-16, -1.000000000000000000 ) ) ;
#233 = PRODUCT_DEFINITION_FORMATION_WITH_SPECIFIED_SOURCE ( 'ANY', '', #64, .NOT_KNOWN. ) ;
#234 = FACE_BOUND ( 'NONE', #135, .T. ) ;
#235 = APPROVAL ( #221, 'UNSPECIFIED' ) ;
#236 =( NAMED_UNIT ( * ) SI_UNIT ( $, .STERADIAN. ) SOLID_ANGLE_UNIT ( ) );
#237 = FACE_OUTER_BOUND ( 'NONE', #49, .T. ) ;
#238 = EDGE_CURVE ( 'NONE', #240, #240, #271, .T. ) ;
#239 = LOCAL_TIME ( 9, 41, 35.00000000000000000, #150 ) ;
#240 = VERTEX_POINT ( 'NONE', #191 ) ;
#241 = PERSON_AND_ORGANIZATION_ROLE ( 'design_supplier' ) ;
#242 = DIRECTION ( 'NONE',  ( 3.491481338843133355E-15, -1.224646799147353207E-16, 1.000000000000000000 ) ) ;
#243 = COORDINATED_UNIVERSAL_TIME_OFFSET ( 1, 0, .AHEAD. ) ;
#244 = EDGE_CURVE ( 'NONE', #212, #212, #262, .T. ) ;
#245 = ORIENTED_EDGE ( 'NONE', *, *, #137, .F. ) ;
#246 = PERSON_AND_ORGANIZATION ( #257, #147 ) ;
#247 = EDGE_LOOP ( 'NONE', ( #121 ) ) ;
#248 = ORIENTED_EDGE ( 'NONE', *, *, #137, .T. ) ;
#249 = EDGE_LOOP ( 'NONE', ( #9 ) ) ;
#250 = PRODUCT_DEFINITION ( 'UNKNOWN', '', #233, #57 ) ;
#251 = AXIS2_PLACEMENT_3D ( 'NONE', #159, #77, #252 ) ;
#252 = DIRECTION ( 'NONE',  ( 0.0000000000000000000, 1.000000000000000000, 0.0000000000000000000 ) ) ;
#253 = DIRECTION ( 'NONE',  ( 3.491481338843133355E-15, -1.224646799147353207E-16, 1.000000000000000000 ) ) ;
#254 = CC_DESIGN_DATE_AND_TIME_ASSIGNMENT ( #43, #128, ( #149 ) ) ;
#255 = FACE_OUTER_BOUND ( 'NONE', #231, .T. ) ;
#256 = APPROVAL_PERSON_ORGANIZATION ( #172, #167, #113 ) ;
#257 = PERSON ( 'UNSPECIFIED', 'UNSPECIFIED', 'UNSPECIFIED', ('UNSPECIFIED'), ('UNSPECIFIED'), ('UNSPECIFIED') ) ;
#258 = DIRECTION ( 'NONE',  ( 0.0000000000000000000, 1.000000000000000000, 0.0000000000000000000 ) ) ;
#259 = FACE_OUTER_BOUND ( 'NONE', #204, .T. ) ;
#260 = CC_DESIGN_DATE_AND_TIME_ASSIGNMENT ( #70, #152, ( #250 ) ) ;
#261 = DIRECTION ( 'NONE',  ( -4.275831445896958607E-31, -1.000000000000000000, -1.224646799147353207E-16 ) ) ;
#262 = CIRCLE ( 'NONE', #73, 6.000000000000000888 ) ;
#263 = APPROVAL_DATE_TIME ( #47, #235 ) ;
#264 = FACE_OUTER_BOUND ( 'NONE', #136, .T. ) ;
#265 = DIRECTION ( 'NONE',  ( -3.491481338843133355E-15, 1.224646799147353207E-16, -1.000000000000000000 ) ) ;
#266 = CALENDAR_DATE ( 2021, 2, 12 ) ;
#267 = EDGE_LOOP ( 'NONE', ( #74 ) ) ;
#268 = APPROVAL_DATE_TIME ( #174, #194 ) ;
#269 = APPROVAL_ROLE ( '' ) ;
#270 = EDGE_LOOP ( 'NONE', ( #248 ) ) ;
#271 = CIRCLE ( 'NONE', #215, 4.749999999999989342 ) ;
#272 = DIRECTION ( 'NONE',  ( 4.275831445896958607E-31, 1.000000000000000000, 1.224646799147353207E-16 ) ) ;
#273 = EDGE_CURVE ( 'NONE', #218, #218, #16, .T. ) ;
#274 = ORIENTED_EDGE ( 'NONE', *, *, #4, .F. ) ;
#275 = DIRECTION ( 'NONE',  ( 0.0000000000000000000, 1.000000000000000000, 0.0000000000000000000 ) ) ;
#276 = EDGE_LOOP ( 'NONE', ( #203 ) ) ;
#277 = AXIS2_PLACEMENT_3D ( 'NONE', #192, #242, #261 ) ;
#278 = CC_DESIGN_SECURITY_CLASSIFICATION ( #149, ( #233 ) ) ;
#279 = CARTESIAN_POINT ( 'NONE',  ( 7.383695004798779497E-14, -2.589851577583753934E-15, 21.14774300138545371 ) ) ;
#280 = ADVANCED_FACE ( 'NONE', ( #234, #110 ), #3, .T. ) ;
#281 = DIRECTION ( 'NONE',  ( -3.491481338843133355E-15, 1.224646799147353207E-16, -1.000000000000000000 ) ) ;
#282 = CC_DESIGN_APPROVAL ( #167, ( #250 ) ) ;
#283 = DIRECTION ( 'NONE',  ( -3.491481338843133355E-15, 1.224646799147353207E-16, -1.000000000000000000 ) ) ;
ENDSEC;
END-ISO-10303-21;
