ISO-10303-21;
HEADER;
FILE_DESCRIPTION (( 'STEP AP203' ),
    '1' );
FILE_NAME ('963743.step',
    '2021-12-02T08:36:39',
    ( '' ),
    ( '' ),
    'SwSTEP 2.0',
    'SolidWorks 2019',
    '' );
FILE_SCHEMA (( 'CONFIG_CONTROL_DESIGN' ));
ENDSEC;

DATA;
#1 = ADVANCED_FACE ( 'NONE', ( #77, #241 ), #256, .T. ) ;
#2 = APPROVAL_STATUS ( 'not_yet_approved' ) ;
#3 = DESIGN_CONTEXT ( 'detailed design', #185, 'design' ) ;
#4 = DIRECTION ( 'NONE',  ( -3.491481338843133355E-15, 1.224646799147353207E-16, -1.000000000000000000 ) ) ;
#5 = EDGE_CURVE ( 'NONE', #135, #135, #17, .T. ) ;
#6 = DIRECTION ( 'NONE',  ( 3.491481338843133355E-15, -1.224646799147353207E-16, 1.000000000000000000 ) ) ;
#7 = DIRECTION ( 'NONE',  ( 0.0000000000000000000, 1.000000000000000000, 0.0000000000000000000 ) ) ;
#8 = DIRECTION ( 'NONE',  ( 3.491481338843133355E-15, -1.224646799147353207E-16, 1.000000000000000000 ) ) ;
#9 = CIRCLE ( 'NONE', #168, 5.999999999999994671 ) ;
#10 = PERSON_AND_ORGANIZATION ( #108, #221 ) ;
#11 = VERTEX_POINT ( 'NONE', #50 ) ;
#12 = APPROVAL ( #54, 'UNSPECIFIED' ) ;
#13 = CARTESIAN_POINT ( 'NONE',  ( 3.351822085289408021E-13, -1.175660927181459158E-14, 96.00000000000000000 ) ) ;
#14 = AXIS2_PLACEMENT_3D ( 'NONE', #15, #40, #122 ) ;
#15 = CARTESIAN_POINT ( 'NONE',  ( 1.745740669421564508E-15, -6.123233995736758640E-17, 0.4999999999999993339 ) ) ;
#16 = DIRECTION ( 'NONE',  ( 0.0000000000000000000, 1.000000000000000000, 0.0000000000000000000 ) ) ;
#17 = CIRCLE ( 'NONE', #148, 4.749999999999990230 ) ;
#18 = LOCAL_TIME ( 9, 36, 39.00000000000000000, #235 ) ;
#19 = SECURITY_CLASSIFICATION_LEVEL ( 'unclassified' ) ;
#20 = AXIS2_PLACEMENT_3D ( 'NONE', #87, #104, #16 ) ;
#21 = ORIENTED_EDGE ( 'NONE', *, *, #26, .T. ) ;
#22 = ORIENTED_EDGE ( 'NONE', *, *, #59, .F. ) ;
#23 =( LENGTH_UNIT ( ) NAMED_UNIT ( * ) SI_UNIT ( .MILLI., .METRE. ) );
#24 = CARTESIAN_POINT ( 'NONE',  ( 4.957903501157248607E-13, -1.738998454789241313E-14, 142.0000000000000000 ) ) ;
#25 = APPLICATION_PROTOCOL_DEFINITION ( 'international standard', 'config_control_design', 1994, #210 ) ;
#26 = EDGE_CURVE ( 'NONE', #252, #252, #9, .T. ) ;
#27 = FACE_OUTER_BOUND ( 'NONE', #147, .T. ) ;
#28 = PERSON_AND_ORGANIZATION ( #108, #221 ) ;
#29 = ORIENTED_EDGE ( 'NONE', *, *, #186, .T. ) ;
#30 = DIRECTION ( 'NONE',  ( -4.275831445896958607E-31, -1.000000000000000000, -1.224646799147353207E-16 ) ) ;
#31 = PERSON_AND_ORGANIZATION ( #108, #221 ) ;
#32 = FACE_BOUND ( 'NONE', #196, .T. ) ;
#33 = CARTESIAN_POINT ( 'NONE',  ( 4.922988687768816390E-13, 5.999999999999984013, 140.9999999999999716 ) ) ;
#34 = AXIS2_PLACEMENT_3D ( 'NONE', #137, #86, #205 ) ;
#35 = DIRECTION ( 'NONE',  ( 3.491481338843133355E-15, -1.224646799147353207E-16, 1.000000000000000000 ) ) ;
#36 = CC_DESIGN_APPROVAL ( #12, ( #207 ) ) ;
#37 = EDGE_CURVE ( 'NONE', #153, #153, #125, .T. ) ;
#38 = CYLINDRICAL_SURFACE ( 'NONE', #115, 5.759999999999998010 ) ;
#39 = AXIS2_PLACEMENT_3D ( 'NONE', #110, #6, #30 ) ;
#40 = DIRECTION ( 'NONE',  ( 3.491481338843133355E-15, -1.224646799147353207E-16, 1.000000000000000000 ) ) ;
#41 = CC_DESIGN_PERSON_AND_ORGANIZATION_ASSIGNMENT ( #67, #171, ( #188 ) ) ;
#42 = EDGE_LOOP ( 'NONE', ( #225 ) ) ;
#43 = EDGE_LOOP ( 'NONE', ( #46 ) ) ;
#44 = LOCAL_TIME ( 9, 36, 39.00000000000000000, #51 ) ;
#45 = PERSON_AND_ORGANIZATION_ROLE ( 'design_supplier' ) ;
#46 = ORIENTED_EDGE ( 'NONE', *, *, #274, .T. ) ;
#47 = ADVANCED_FACE ( 'NONE', ( #100, #228 ), #38, .T. ) ;
#48 = CARTESIAN_POINT ( 'NONE',  ( 0.0000000000000000000, 0.0000000000000000000, 0.0000000000000000000 ) ) ;
#49 = DIRECTION ( 'NONE',  ( -3.491481338843133355E-15, 1.224646799147353207E-16, -1.000000000000000000 ) ) ;
#50 = CARTESIAN_POINT ( 'NONE',  ( 3.351822085289408021E-13, 4.749999999999989342, 96.00000000000000000 ) ) ;
#51 = COORDINATED_UNIVERSAL_TIME_OFFSET ( 1, 0, .AHEAD. ) ;
#52 = CARTESIAN_POINT ( 'NONE',  ( 3.416555881846535738E-13, -1.198366486529116725E-14, 97.85404962177391042 ) ) ;
#53 = FACE_OUTER_BOUND ( 'NONE', #74, .T. ) ;
#54 = APPROVAL_STATUS ( 'not_yet_approved' ) ;
#55 = FACE_BOUND ( 'NONE', #172, .T. ) ;
#56 = FACE_OUTER_BOUND ( 'NONE', #128, .T. ) ;
#57 = VERTEX_POINT ( 'NONE', #118 ) ;
#58 = LOCAL_TIME ( 9, 36, 39.00000000000000000, #127 ) ;
#59 = EDGE_CURVE ( 'NONE', #161, #161, #204, .T. ) ;
#60 = DIRECTION ( 'NONE',  ( 4.275831445896958607E-31, 1.000000000000000000, 1.224646799147353207E-16 ) ) ;
#61 = CLOSED_SHELL ( 'NONE', ( #261, #112, #47, #209 ) ) ;
#62 = AXIS2_PLACEMENT_3D ( 'NONE', #187, #282, #7 ) ;
#63 = DIRECTION ( 'NONE',  ( 0.0000000000000000000, 1.000000000000000000, 0.0000000000000000000 ) ) ;
#64 = PRODUCT_DEFINITION ( 'UNKNOWN', '', #207, #3 ) ;
#65 =( GEOMETRIC_REPRESENTATION_CONTEXT ( 3 ) GLOBAL_UNCERTAINTY_ASSIGNED_CONTEXT ( ( #124 ) ) GLOBAL_UNIT_ASSIGNED_CONTEXT ( ( #23, #92, #76 ) ) REPRESENTATION_CONTEXT ( 'NONE', 'WORKASPACE' ) );
#66 = EDGE_LOOP ( 'NONE', ( #222 ) ) ;
#67 = PERSON_AND_ORGANIZATION ( #108, #221 ) ;
#68 = AXIS2_PLACEMENT_3D ( 'NONE', #277, #234, #63 ) ;
#69 = EDGE_LOOP ( 'NONE', ( #243 ) ) ;
#70 = VERTEX_POINT ( 'NONE', #201 ) ;
#71 = EDGE_LOOP ( 'NONE', ( #265 ) ) ;
#72 = APPROVAL_PERSON_ORGANIZATION ( #236, #280, #189 ) ;
#73 = CALENDAR_DATE ( 2021, 2, 12 ) ;
#74 = EDGE_LOOP ( 'NONE', ( #21 ) ) ;
#75 = CARTESIAN_POINT ( 'NONE',  ( 7.244604274130013035E-14, 4.749999999999987566, 20.74937131564460557 ) ) ;
#76 =( NAMED_UNIT ( * ) SI_UNIT ( $, .STERADIAN. ) SOLID_ANGLE_UNIT ( ) );
#77 = FACE_OUTER_BOUND ( 'NONE', #267, .T. ) ;
#78 = DIRECTION ( 'NONE',  ( -3.491481338843133355E-15, 1.224646799147353207E-16, -1.000000000000000000 ) ) ;
#79 = CIRCLE ( 'NONE', #121, 4.750000000000001776 ) ;
#80 = PLANE ( 'NONE',  #229 ) ;
#81 = FACE_OUTER_BOUND ( 'NONE', #270, .T. ) ;
#82 = DIRECTION ( 'NONE',  ( -3.491481338843133355E-15, 1.224646799147353207E-16, -1.000000000000000000 ) ) ;
#83 = FACE_OUTER_BOUND ( 'NONE', #66, .T. ) ;
#84 = ADVANCED_FACE ( 'NONE', ( #85 ), #80, .F. ) ;
#85 = FACE_OUTER_BOUND ( 'NONE', #69, .T. ) ;
#86 = DIRECTION ( 'NONE',  ( -3.491481338843133355E-15, 1.224646799147353207E-16, -1.000000000000000000 ) ) ;
#87 = CARTESIAN_POINT ( 'NONE',  ( 4.922988687768816390E-13, -1.726751986797767482E-14, 140.9999999999999716 ) ) ;
#88 = APPROVAL_PERSON_ORGANIZATION ( #111, #12, #152 ) ;
#89 = DATE_AND_TIME ( #264, #254 ) ;
#90 = CIRCLE ( 'NONE', #20, 6.000000000000000888 ) ;
#91 = ORIENTED_EDGE ( 'NONE', *, *, #5, .T. ) ;
#92 =( NAMED_UNIT ( * ) PLANE_ANGLE_UNIT ( ) SI_UNIT ( $, .RADIAN. ) );
#93 = CALENDAR_DATE ( 2021, 2, 12 ) ;
#94 = DIRECTION ( 'NONE',  ( 0.0000000000000000000, 1.000000000000000000, 0.0000000000000000000 ) ) ;
#95 = ORIENTED_EDGE ( 'NONE', *, *, #37, .T. ) ;
#96 = DIRECTION ( 'NONE',  ( 0.0000000000000000000, 1.000000000000000000, 0.0000000000000000000 ) ) ;
#97 = DATE_AND_TIME ( #131, #142 ) ;
#98 = CARTESIAN_POINT ( 'NONE',  ( 1.514188661106529085E-30, 5.260000000000002451, 4.336808689942017736E-16 ) ) ;
#99 = AXIS2_PLACEMENT_3D ( 'NONE', #232, #120, #211 ) ;
#100 = FACE_OUTER_BOUND ( 'NONE', #71, .T. ) ;
#101 = PLANE ( 'NONE',  #39 ) ;
#102 = VERTEX_POINT ( 'NONE', #130 ) ;
#103 = AXIS2_PLACEMENT_3D ( 'NONE', #247, #35, #278 ) ;
#104 = DIRECTION ( 'NONE',  ( -3.491481338843133355E-15, 1.224646799147353207E-16, -1.000000000000000000 ) ) ;
#105 = ADVANCED_FACE ( 'NONE', ( #143, #160 ), #250, .T. ) ;
#106 = DATE_TIME_ROLE ( 'classification_date' ) ;
#107 = ORIENTED_EDGE ( 'NONE', *, *, #166, .T. ) ;
#108 = PERSON ( 'UNSPECIFIED', 'UNSPECIFIED', 'UNSPECIFIED', ('UNSPECIFIED'), ('UNSPECIFIED'), ('UNSPECIFIED') ) ;
#109 = ORIENTED_EDGE ( 'NONE', *, *, #123, .T. ) ;
#110 = CARTESIAN_POINT ( 'NONE',  ( 6.633814543801952113E-14, 4.319308174066145860E-32, 19.00000000000000000 ) ) ;
#111 = PERSON_AND_ORGANIZATION ( #108, #221 ) ;
#112 = ADVANCED_FACE ( 'NONE', ( #32, #257 ), #191, .T. ) ;
#113 = DIRECTION ( 'NONE',  ( -3.491481338843133355E-15, 1.224646799147353207E-16, -1.000000000000000000 ) ) ;
#114 = APPROVAL_STATUS ( 'not_yet_approved' ) ;
#115 = AXIS2_PLACEMENT_3D ( 'NONE', #212, #178, #165 ) ;
#116 = CARTESIAN_POINT ( 'NONE',  ( 4.957903501157248607E-13, 3.749399456654618840E-32, 142.0000000000000000 ) ) ;
#117 = DIRECTION ( 'NONE',  ( 0.0000000000000000000, 1.000000000000000000, 0.0000000000000000000 ) ) ;
#118 = CARTESIAN_POINT ( 'NONE',  ( 6.633814543801952113E-14, 5.759999999999997122, 19.00000000000000000 ) ) ;
#119 = PRODUCT_RELATED_PRODUCT_CATEGORY ( 'detail', '', ( #150 ) ) ;
#120 = DIRECTION ( 'NONE',  ( -3.491481338843133355E-15, 1.224646799147353207E-16, -1.000000000000000000 ) ) ;
#121 = AXIS2_PLACEMENT_3D ( 'NONE', #13, #113, #117 ) ;
#122 = DIRECTION ( 'NONE',  ( -4.012354050806743404E-31, -1.000000000000000000, -1.317606806840023297E-16 ) ) ;
#123 = EDGE_CURVE ( 'NONE', #275, #275, #90, .T. ) ;
#124 = UNCERTAINTY_MEASURE_WITH_UNIT (LENGTH_MEASURE( 1.000000000000000082E-05 ), #23, 'distance_accuracy_value', 'NONE');
#125 = CIRCLE ( 'NONE', #34, 5.260000000000002451 ) ;
#126 = ORIENTED_EDGE ( 'NONE', *, *, #37, .F. ) ;
#127 = COORDINATED_UNIVERSAL_TIME_OFFSET ( 1, 0, .AHEAD. ) ;
#128 = EDGE_LOOP ( 'NONE', ( #199 ) ) ;
#129 = MECHANICAL_CONTEXT ( 'NONE', #210, 'mechanical' ) ;
#130 = CARTESIAN_POINT ( 'NONE',  ( 4.957903501157248607E-13, 4.999999999999984013, 142.0000000000000000 ) ) ;
#131 = CALENDAR_DATE ( 2021, 2, 12 ) ;
#132 = CIRCLE ( 'NONE', #279, 5.759999999999997122 ) ;
#133 = ADVANCED_FACE ( 'NONE', ( #145, #55 ), #276, .T. ) ;
#134 = ORIENTED_EDGE ( 'NONE', *, *, #176, .T. ) ;
#135 = VERTEX_POINT ( 'NONE', #75 ) ;
#136 = DATE_AND_TIME ( #73, #44 ) ;
#137 = CARTESIAN_POINT ( 'NONE',  ( -7.348986794352721333E-31, 2.577677576149456593E-32, -2.104833473573063126E-16 ) ) ;
#138 = DIRECTION ( 'NONE',  ( 4.275831445896958607E-31, 1.000000000000000000, 1.224646799147353207E-16 ) ) ;
#139 = AXIS2_PLACEMENT_3D ( 'NONE', #24, #49, #156 ) ;
#140 = CARTESIAN_POINT ( 'NONE',  ( 1.745740669421564508E-15, -6.123233995736758640E-17, 0.4999999999999993339 ) ) ;
#141 = CC_DESIGN_PERSON_AND_ORGANIZATION_ASSIGNMENT ( #31, #203, ( #207 ) ) ;
#142 = LOCAL_TIME ( 9, 36, 39.00000000000000000, #158 ) ;
#143 = FACE_OUTER_BOUND ( 'NONE', #194, .T. ) ;
#144 = AXIS2_PLACEMENT_3D ( 'NONE', #281, #244, #184 ) ;
#145 = FACE_OUTER_BOUND ( 'NONE', #149, .T. ) ;
#146 = CC_DESIGN_PERSON_AND_ORGANIZATION_ASSIGNMENT ( #28, #249, ( #64 ) ) ;
#147 = EDGE_LOOP ( 'NONE', ( #95 ) ) ;
#148 = AXIS2_PLACEMENT_3D ( 'NONE', #246, #4, #94 ) ;
#149 = EDGE_LOOP ( 'NONE', ( #22 ) ) ;
#150 = PRODUCT ( '963743', '963743', '', ( #129 ) ) ;
#151 = EDGE_LOOP ( 'NONE', ( #174 ) ) ;
#152 = APPROVAL_ROLE ( '' ) ;
#153 = VERTEX_POINT ( 'NONE', #98 ) ;
#154 = CC_DESIGN_PERSON_AND_ORGANIZATION_ASSIGNMENT ( #10, #223, ( #150 ) ) ;
#155 = APPLICATION_PROTOCOL_DEFINITION ( 'international standard', 'config_control_design', 1994, #185 ) ;
#156 = DIRECTION ( 'NONE',  ( 0.0000000000000000000, 1.000000000000000000, 0.0000000000000000000 ) ) ;
#157 = PLANE ( 'NONE',  #103 ) ;
#158 = COORDINATED_UNIVERSAL_TIME_OFFSET ( 1, 0, .AHEAD. ) ;
#159 = AXIS2_PLACEMENT_3D ( 'NONE', #200, #82, #96 ) ;
#160 = FACE_OUTER_BOUND ( 'NONE', #272, .T. ) ;
#161 = VERTEX_POINT ( 'NONE', #251 ) ;
#162 = DIRECTION ( 'NONE',  ( 4.012354050806743404E-31, 1.000000000000000000, 1.317606806840023297E-16 ) ) ;
#163 = DIRECTION ( 'NONE',  ( -4.275831445896958607E-31, -1.000000000000000000, -1.224646799147353207E-16 ) ) ;
#164 = ADVANCED_BREP_SHAPE_REPRESENTATION ( '963743', ( #182, #180, #260 ), #65 ) ;
#165 = DIRECTION ( 'NONE',  ( 4.275831445896958607E-31, 1.000000000000000000, 1.224646799147353207E-16 ) ) ;
#166 = EDGE_CURVE ( 'NONE', #11, #11, #79, .T. ) ;
#167 = DIRECTION ( 'NONE',  ( -3.491481338843133355E-15, 1.224646799147353207E-16, -1.000000000000000000 ) ) ;
#168 = AXIS2_PLACEMENT_3D ( 'NONE', #52, #259, #255 ) ;
#169 = CALENDAR_DATE ( 2021, 2, 12 ) ;
#170 = TOROIDAL_SURFACE ( 'NONE', #181, 6.750000000000001776, 1.999999999999997113 ) ;
#171 = PERSON_AND_ORGANIZATION_ROLE ( 'classification_officer' ) ;
#172 = EDGE_LOOP ( 'NONE', ( #91 ) ) ;
#173 = ORIENTED_EDGE ( 'NONE', *, *, #123, .F. ) ;
#174 = ORIENTED_EDGE ( 'NONE', *, *, #59, .T. ) ;
#175 = PERSON_AND_ORGANIZATION ( #108, #221 ) ;
#176 = EDGE_CURVE ( 'NONE', #57, #57, #233, .T. ) ;
#177 = CYLINDRICAL_SURFACE ( 'NONE', #258, 5.999999999999998224 ) ;
#178 = DIRECTION ( 'NONE',  ( -3.491481338843133355E-15, 1.224646799147353207E-16, -1.000000000000000000 ) ) ;
#179 = DIRECTION ( 'NONE',  ( 4.275831445896958607E-31, 1.000000000000000000, 1.224646799147353207E-16 ) ) ;
#180 = MANIFOLD_SOLID_BREP ( 'Corps-Déplacer/Copier1[2]', #61 ) ;
#181 = AXIS2_PLACEMENT_3D ( 'NONE', #273, #78, #179 ) ;
#182 = MANIFOLD_SOLID_BREP ( 'Corps-Déplacer/Copier1[1]', #217 ) ;
#183 = CARTESIAN_POINT ( 'NONE',  ( 0.0000000000000000000, 0.0000000000000000000, 0.0000000000000000000 ) ) ;
#184 = DIRECTION ( 'NONE',  ( 0.0000000000000000000, 1.000000000000000000, 0.0000000000000000000 ) ) ;
#185 = APPLICATION_CONTEXT ( 'configuration controlled 3d designs of mechanical parts and assemblies' ) ;
#186 = EDGE_CURVE ( 'NONE', #102, #102, #248, .T. ) ;
#187 = CARTESIAN_POINT ( 'NONE',  ( 7.244604274130013035E-14, -2.541065116602407027E-15, 20.74937131564460557 ) ) ;
#188 = SECURITY_CLASSIFICATION ( '', '', #19 ) ;
#189 = APPROVAL_ROLE ( '' ) ;
#190 = APPROVAL_DATE_TIME ( #215, #280 ) ;
#191 = CONICAL_SURFACE ( 'NONE', #14, 5.759999999999997122, 0.7853981633974430610 ) ;
#192 = SHAPE_DEFINITION_REPRESENTATION ( #198, #164 ) ;
#193 = ORIENTED_EDGE ( 'NONE', *, *, #5, .F. ) ;
#194 = EDGE_LOOP ( 'NONE', ( #193 ) ) ;
#195 = DATE_TIME_ROLE ( 'creation_date' ) ;
#196 = EDGE_LOOP ( 'NONE', ( #126 ) ) ;
#197 = DIRECTION ( 'NONE',  ( 0.0000000000000000000, 0.0000000000000000000, 1.000000000000000000 ) ) ;
#198 = PRODUCT_DEFINITION_SHAPE ( 'NONE', 'NONE',  #64 ) ;
#199 = ORIENTED_EDGE ( 'NONE', *, *, #176, .F. ) ;
#200 = CARTESIAN_POINT ( 'NONE',  ( 4.957903501157248607E-13, -1.738998454789241313E-14, 142.0000000000000000 ) ) ;
#201 = CARTESIAN_POINT ( 'NONE',  ( 1.745740669421566678E-15, 5.759999999999997122, 0.5000000000000001110 ) ) ;
#202 = PLANE ( 'NONE',  #218 ) ;
#203 = PERSON_AND_ORGANIZATION_ROLE ( 'creator' ) ;
#204 = CIRCLE ( 'NONE', #68, 5.759999999999999787 ) ;
#205 = DIRECTION ( 'NONE',  ( 4.275831445896957731E-31, 1.000000000000000000, 1.224646799147353207E-16 ) ) ;
#206 = DIRECTION ( 'NONE',  ( -3.491481338843133355E-15, 1.224646799147353207E-16, -1.000000000000000000 ) ) ;
#207 = PRODUCT_DEFINITION_FORMATION_WITH_SPECIFIED_SOURCE ( 'ANY', '', #150, .NOT_KNOWN. ) ;
#208 = CARTESIAN_POINT ( 'NONE',  ( 6.633814543801952113E-14, 4.319308174066145860E-32, 19.00000000000000000 ) ) ;
#209 = ADVANCED_FACE ( 'NONE', ( #56 ), #101, .T. ) ;
#210 = APPLICATION_CONTEXT ( 'configuration controlled 3d designs of mechanical parts and assemblies' ) ;
#211 = DIRECTION ( 'NONE',  ( 4.275831445896958607E-31, 1.000000000000000000, 1.224646799147353207E-16 ) ) ;
#212 = CARTESIAN_POINT ( 'NONE',  ( 0.0000000000000000000, 0.0000000000000000000, 0.0000000000000000000 ) ) ;
#213 = APPROVAL ( #114, 'UNSPECIFIED' ) ;
#214 = CC_DESIGN_SECURITY_CLASSIFICATION ( #188, ( #207 ) ) ;
#215 = DATE_AND_TIME ( #169, #18 ) ;
#216 = ADVANCED_FACE ( 'NONE', ( #83, #53 ), #170, .F. ) ;
#217 = CLOSED_SHELL ( 'NONE', ( #231, #133, #105, #216, #237, #1, #84 ) ) ;
#218 = AXIS2_PLACEMENT_3D ( 'NONE', #208, #8, #163 ) ;
#219 = EDGE_LOOP ( 'NONE', ( #134 ) ) ;
#220 = CC_DESIGN_PERSON_AND_ORGANIZATION_ASSIGNMENT ( #268, #45, ( #207 ) ) ;
#221 = ORGANIZATION ( 'UNSPECIFIED', 'UNSPECIFIED', '' ) ;
#222 = ORIENTED_EDGE ( 'NONE', *, *, #166, .F. ) ;
#223 = PERSON_AND_ORGANIZATION_ROLE ( 'design_owner' ) ;
#224 = FACE_OUTER_BOUND ( 'NONE', #151, .T. ) ;
#225 = ORIENTED_EDGE ( 'NONE', *, *, #26, .F. ) ;
#226 = CARTESIAN_POINT ( 'NONE',  ( 3.416555881846535738E-13, 5.999999999999983125, 97.85404962177391042 ) ) ;
#227 = DATE_AND_TIME ( #93, #58 ) ;
#228 = FACE_OUTER_BOUND ( 'NONE', #219, .T. ) ;
#229 = AXIS2_PLACEMENT_3D ( 'NONE', #116, #167, #60 ) ;
#230 = FACE_OUTER_BOUND ( 'NONE', #42, .T. ) ;
#231 = ADVANCED_FACE ( 'NONE', ( #224 ), #202, .F. ) ;
#232 = CARTESIAN_POINT ( 'NONE',  ( 0.0000000000000000000, 0.0000000000000000000, 0.0000000000000000000 ) ) ;
#233 = CIRCLE ( 'NONE', #144, 5.759999999999999787 ) ;
#234 = DIRECTION ( 'NONE',  ( -3.491481338843133355E-15, 1.224646799147353207E-16, -1.000000000000000000 ) ) ;
#235 = COORDINATED_UNIVERSAL_TIME_OFFSET ( 1, 0, .AHEAD. ) ;
#236 = PERSON_AND_ORGANIZATION ( #108, #221 ) ;
#237 = ADVANCED_FACE ( 'NONE', ( #230, #81 ), #177, .T. ) ;
#238 = CC_DESIGN_DATE_AND_TIME_ASSIGNMENT ( #89, #106, ( #188 ) ) ;
#239 = APPROVAL_DATE_TIME ( #97, #213 ) ;
#240 = CC_DESIGN_APPROVAL ( #280, ( #188 ) ) ;
#241 = FACE_BOUND ( 'NONE', #263, .T. ) ;
#242 = APPROVAL_DATE_TIME ( #227, #12 ) ;
#243 = ORIENTED_EDGE ( 'NONE', *, *, #186, .F. ) ;
#244 = DIRECTION ( 'NONE',  ( -3.491481338843133355E-15, 1.224646799147353207E-16, -1.000000000000000000 ) ) ;
#245 = APPROVAL_ROLE ( '' ) ;
#246 = CARTESIAN_POINT ( 'NONE',  ( 7.244604274130013035E-14, -2.541065116602407027E-15, 20.74937131564460557 ) ) ;
#247 = CARTESIAN_POINT ( 'NONE',  ( -3.674493397176360667E-31, 1.288838788074728297E-32, -1.052416736786531563E-16 ) ) ;
#248 = CIRCLE ( 'NONE', #159, 5.000000000000000888 ) ;
#249 = PERSON_AND_ORGANIZATION_ROLE ( 'creator' ) ;
#250 = CYLINDRICAL_SURFACE ( 'NONE', #99, 4.749999999999995559 ) ;
#251 = CARTESIAN_POINT ( 'NONE',  ( 6.633814543801952113E-14, 5.759999999999997122, 19.00000000000000000 ) ) ;
#252 = VERTEX_POINT ( 'NONE', #226 ) ;
#253 = CC_DESIGN_DATE_AND_TIME_ASSIGNMENT ( #136, #195, ( #64 ) ) ;
#254 = LOCAL_TIME ( 9, 36, 39.00000000000000000, #262 ) ;
#255 = DIRECTION ( 'NONE',  ( 0.0000000000000000000, 1.000000000000000000, 0.0000000000000000000 ) ) ;
#256 = CONICAL_SURFACE ( 'NONE', #139, 5.000000000000000888, 0.7853981633974339571 ) ;
#257 = FACE_OUTER_BOUND ( 'NONE', #43, .T. ) ;
#258 = AXIS2_PLACEMENT_3D ( 'NONE', #183, #206, #138 ) ;
#259 = DIRECTION ( 'NONE',  ( -3.491481338843133355E-15, 1.224646799147353207E-16, -1.000000000000000000 ) ) ;
#260 = AXIS2_PLACEMENT_3D ( 'NONE', #48, #197, #266 ) ;
#261 = ADVANCED_FACE ( 'NONE', ( #27 ), #157, .F. ) ;
#262 = COORDINATED_UNIVERSAL_TIME_OFFSET ( 1, 0, .AHEAD. ) ;
#263 = EDGE_LOOP ( 'NONE', ( #29 ) ) ;
#264 = CALENDAR_DATE ( 2021, 2, 12 ) ;
#265 = ORIENTED_EDGE ( 'NONE', *, *, #274, .F. ) ;
#266 = DIRECTION ( 'NONE',  ( 1.000000000000000000, 0.0000000000000000000, 0.0000000000000000000 ) ) ;
#267 = EDGE_LOOP ( 'NONE', ( #173 ) ) ;
#268 = PERSON_AND_ORGANIZATION ( #108, #221 ) ;
#269 = CC_DESIGN_APPROVAL ( #213, ( #64 ) ) ;
#270 = EDGE_LOOP ( 'NONE', ( #109 ) ) ;
#271 = DIRECTION ( 'NONE',  ( -3.491481338843133355E-15, 1.224646799147353207E-16, -1.000000000000000000 ) ) ;
#272 = EDGE_LOOP ( 'NONE', ( #107 ) ) ;
#273 = CARTESIAN_POINT ( 'NONE',  ( 3.351822085289408021E-13, -1.214306433183764966E-14, 96.00000000000000000 ) ) ;
#274 = EDGE_CURVE ( 'NONE', #70, #70, #132, .T. ) ;
#275 = VERTEX_POINT ( 'NONE', #33 ) ;
#276 = CONICAL_SURFACE ( 'NONE', #62, 4.749999999999990230, 0.5235987755982925984 ) ;
#277 = CARTESIAN_POINT ( 'NONE',  ( 6.633814543801952113E-14, -2.326828918379970970E-15, 19.00000000000000000 ) ) ;
#278 = DIRECTION ( 'NONE',  ( -4.275831445896958607E-31, -1.000000000000000000, -1.224646799147353207E-16 ) ) ;
#279 = AXIS2_PLACEMENT_3D ( 'NONE', #140, #271, #162 ) ;
#280 = APPROVAL ( #2, 'UNSPECIFIED' ) ;
#281 = CARTESIAN_POINT ( 'NONE',  ( 6.633814543801952113E-14, -2.326828918379970970E-15, 19.00000000000000000 ) ) ;
#282 = DIRECTION ( 'NONE',  ( -3.491481338843133355E-15, 1.224646799147353207E-16, -1.000000000000000000 ) ) ;
#283 = APPROVAL_PERSON_ORGANIZATION ( #175, #213, #245 ) ;
ENDSEC;
END-ISO-10303-21;
