ISO-10303-21;
HEADER;
FILE_DESCRIPTION (( 'STEP AP203' ),
    '1' );
FILE_NAME ('963742.step',
    '2021-12-02T08:36:39',
    ( '' ),
    ( '' ),
    'SwSTEP 2.0',
    'SolidWorks 2019',
    '' );
FILE_SCHEMA (( 'CONFIG_CONTROL_DESIGN' ));
ENDSEC;

DATA;
#1 = DIRECTION ( 'NONE',  ( 4.275831445896958607E-31, 1.000000000000000000, 1.224646799147353454E-16 ) ) ;
#2 = DIRECTION ( 'NONE',  ( 3.491481338843133355E-15, -1.224646799147353207E-16, 1.000000000000000000 ) ) ;
#3 = CALENDAR_DATE ( 2021, 2, 12 ) ;
#4 = ORGANIZATION ( 'UNSPECIFIED', 'UNSPECIFIED', '' ) ;
#5 = COORDINATED_UNIVERSAL_TIME_OFFSET ( 1, 0, .AHEAD. ) ;
#6 = PERSON_AND_ORGANIZATION ( #201, #4 ) ;
#7 = AXIS2_PLACEMENT_3D ( 'NONE', #174, #257, #213 ) ;
#8 = ADVANCED_FACE ( 'NONE', ( #105, #40 ), #176, .T. ) ;
#9 = EDGE_LOOP ( 'NONE', ( #137 ) ) ;
#10 = ORIENTED_EDGE ( 'NONE', *, *, #159, .T. ) ;
#11 = AXIS2_PLACEMENT_3D ( 'NONE', #102, #260, #65 ) ;
#12 = FACE_OUTER_BOUND ( 'NONE', #74, .T. ) ;
#13 = VERTEX_POINT ( 'NONE', #83 ) ;
#14 = DIRECTION ( 'NONE',  ( -3.491481338843133355E-15, 1.224646799147353207E-16, -1.000000000000000000 ) ) ;
#15 = FACE_OUTER_BOUND ( 'NONE', #95, .T. ) ;
#16 = FACE_OUTER_BOUND ( 'NONE', #195, .T. ) ;
#17 = VERTEX_POINT ( 'NONE', #132 ) ;
#18 = AXIS2_PLACEMENT_3D ( 'NONE', #121, #208, #57 ) ;
#19 = DIRECTION ( 'NONE',  ( 3.491481338843133355E-15, -1.224646799147353207E-16, 1.000000000000000000 ) ) ;
#20 = CARTESIAN_POINT ( 'NONE',  ( 4.957903501157248607E-13, 4.999999999999984013, 142.0000000000000000 ) ) ;
#21 = FACE_OUTER_BOUND ( 'NONE', #186, .T. ) ;
#22 = AXIS2_PLACEMENT_3D ( 'NONE', #150, #256, #171 ) ;
#23 = PRODUCT_RELATED_PRODUCT_CATEGORY ( 'detail', '', ( #139 ) ) ;
#24 = DIRECTION ( 'NONE',  ( 1.000000000000000000, 0.0000000000000000000, 0.0000000000000000000 ) ) ;
#25 = ADVANCED_BREP_SHAPE_REPRESENTATION ( '963742', ( #160, #254, #250 ), #86 ) ;
#26 = EDGE_CURVE ( 'NONE', #44, #44, #104, .T. ) ;
#27 = UNCERTAINTY_MEASURE_WITH_UNIT (LENGTH_MEASURE( 1.000000000000000082E-05 ), #98, 'distance_accuracy_value', 'NONE');
#28 = PERSON_AND_ORGANIZATION ( #201, #4 ) ;
#29 = PERSON_AND_ORGANIZATION_ROLE ( 'classification_officer' ) ;
#30 = ADVANCED_FACE ( 'NONE', ( #168 ), #61, .F. ) ;
#31 = EDGE_LOOP ( 'NONE', ( #277 ) ) ;
#32 = CONICAL_SURFACE ( 'NONE', #123, 4.749999999999990230, 0.5235987755982932645 ) ;
#33 = DIRECTION ( 'NONE',  ( -4.275831445896958607E-31, -1.000000000000000000, -1.224646799147353207E-16 ) ) ;
#34 = CC_DESIGN_DATE_AND_TIME_ASSIGNMENT ( #156, #51, ( #244 ) ) ;
#35 = APPROVAL_PERSON_ORGANIZATION ( #226, #272, #204 ) ;
#36 = ORIENTED_EDGE ( 'NONE', *, *, #135, .F. ) ;
#37 = CARTESIAN_POINT ( 'NONE',  ( 3.416555881846535738E-13, 5.999999999999983125, 97.85404962177391042 ) ) ;
#38 = CARTESIAN_POINT ( 'NONE',  ( 0.0000000000000000000, 0.0000000000000000000, 0.0000000000000000000 ) ) ;
#39 = CARTESIAN_POINT ( 'NONE',  ( 0.0000000000000000000, 5.255000000000002558, 0.0000000000000000000 ) ) ;
#40 = FACE_BOUND ( 'NONE', #31, .T. ) ;
#41 = DIRECTION ( 'NONE',  ( -3.491481338843133355E-15, 1.224646799147353207E-16, -1.000000000000000000 ) ) ;
#42 = CARTESIAN_POINT ( 'NONE',  ( 6.633814543801952113E-14, 5.754999999999997229, 19.00000000000000000 ) ) ;
#43 = AXIS2_PLACEMENT_3D ( 'NONE', #130, #211, #85 ) ;
#44 = VERTEX_POINT ( 'NONE', #39 ) ;
#45 = ADVANCED_FACE ( 'NONE', ( #76, #280 ), #138, .T. ) ;
#46 = APPROVAL_ROLE ( '' ) ;
#47 = DIRECTION ( 'NONE',  ( 0.0000000000000000000, 0.0000000000000000000, 1.000000000000000000 ) ) ;
#48 = COORDINATED_UNIVERSAL_TIME_OFFSET ( 1, 0, .AHEAD. ) ;
#49 = COORDINATED_UNIVERSAL_TIME_OFFSET ( 1, 0, .AHEAD. ) ;
#50 = ORIENTED_EDGE ( 'NONE', *, *, #26, .F. ) ;
#51 = DATE_TIME_ROLE ( 'creation_date' ) ;
#52 = EDGE_LOOP ( 'NONE', ( #239 ) ) ;
#53 = PRODUCT_DEFINITION_SHAPE ( 'NONE', 'NONE',  #244 ) ;
#54 = EDGE_LOOP ( 'NONE', ( #164 ) ) ;
#55 = AXIS2_PLACEMENT_3D ( 'NONE', #243, #84, #175 ) ;
#56 = CARTESIAN_POINT ( 'NONE',  ( 6.633814543801952113E-14, 4.315558774609491462E-32, 19.00000000000000000 ) ) ;
#57 = DIRECTION ( 'NONE',  ( 0.0000000000000000000, 1.000000000000000000, 0.0000000000000000000 ) ) ;
#58 = FACE_OUTER_BOUND ( 'NONE', #82, .T. ) ;
#59 = FACE_OUTER_BOUND ( 'NONE', #127, .T. ) ;
#60 = CYLINDRICAL_SURFACE ( 'NONE', #80, 5.754999999999998117 ) ;
#61 = PLANE ( 'NONE',  #253 ) ;
#62 = CARTESIAN_POINT ( 'NONE',  ( 7.241580562593736162E-14, 4.749999999999987566, 20.74071106160675981 ) ) ;
#63 = LOCAL_TIME ( 9, 36, 39.00000000000000000, #48 ) ;
#64 = DIRECTION ( 'NONE',  ( -3.491481338843133355E-15, 1.224646799147353207E-16, -1.000000000000000000 ) ) ;
#65 = DIRECTION ( 'NONE',  ( 0.0000000000000000000, 1.000000000000000000, 0.0000000000000000000 ) ) ;
#66 = DATE_TIME_ROLE ( 'classification_date' ) ;
#67 = PERSON_AND_ORGANIZATION_ROLE ( 'creator' ) ;
#68 = CC_DESIGN_APPROVAL ( #272, ( #222 ) ) ;
#69 = PERSON_AND_ORGANIZATION ( #201, #4 ) ;
#70 = APPROVAL_STATUS ( 'not_yet_approved' ) ;
#71 = ORIENTED_EDGE ( 'NONE', *, *, #135, .T. ) ;
#72 = APPROVAL ( #246, 'UNSPECIFIED' ) ;
#73 = ORIENTED_EDGE ( 'NONE', *, *, #264, .T. ) ;
#74 = EDGE_LOOP ( 'NONE', ( #229 ) ) ;
#75 = CIRCLE ( 'NONE', #11, 5.000000000000000888 ) ;
#76 = FACE_BOUND ( 'NONE', #118, .T. ) ;
#77 = FACE_OUTER_BOUND ( 'NONE', #230, .T. ) ;
#78 = FACE_OUTER_BOUND ( 'NONE', #281, .T. ) ;
#79 = DIRECTION ( 'NONE',  ( -3.491481338843133355E-15, 1.224646799147353207E-16, -1.000000000000000000 ) ) ;
#80 = AXIS2_PLACEMENT_3D ( 'NONE', #124, #41, #212 ) ;
#81 = CARTESIAN_POINT ( 'NONE',  ( -1.123474712409426461E-30, 3.940618828944033081E-32, -3.217759464759672486E-16 ) ) ;
#82 = EDGE_LOOP ( 'NONE', ( #71 ) ) ;
#83 = CARTESIAN_POINT ( 'NONE',  ( 3.351822085289408021E-13, 4.749999999999989342, 96.00000000000000000 ) ) ;
#84 = DIRECTION ( 'NONE',  ( -3.491481338843133355E-15, 1.224646799147353207E-16, -1.000000000000000000 ) ) ;
#85 = DIRECTION ( 'NONE',  ( 4.275831445896958607E-31, 1.000000000000000000, 1.224646799147353207E-16 ) ) ;
#86 =( GEOMETRIC_REPRESENTATION_CONTEXT ( 3 ) GLOBAL_UNCERTAINTY_ASSIGNED_CONTEXT ( ( #27 ) ) GLOBAL_UNIT_ASSIGNED_CONTEXT ( ( #98, #92, #224 ) ) REPRESENTATION_CONTEXT ( 'NONE', 'WORKASPACE' ) );
#87 = AXIS2_PLACEMENT_3D ( 'NONE', #81, #2, #172 ) ;
#88 = APPROVAL_STATUS ( 'not_yet_approved' ) ;
#89 = DATE_AND_TIME ( #248, #273 ) ;
#90 = CIRCLE ( 'NONE', #55, 4.749999999999990230 ) ;
#91 = DESIGN_CONTEXT ( 'detailed design', #114, 'design' ) ;
#92 =( NAMED_UNIT ( * ) PLANE_ANGLE_UNIT ( ) SI_UNIT ( $, .RADIAN. ) );
#93 = ORIENTED_EDGE ( 'NONE', *, *, #225, .F. ) ;
#94 = CLOSED_SHELL ( 'NONE', ( #30, #111, #268, #231, #165, #8, #276 ) ) ;
#95 = EDGE_LOOP ( 'NONE', ( #10 ) ) ;
#96 = DIRECTION ( 'NONE',  ( 0.0000000000000000000, 1.000000000000000000, 0.0000000000000000000 ) ) ;
#97 = DIRECTION ( 'NONE',  ( 0.0000000000000000000, 1.000000000000000000, 0.0000000000000000000 ) ) ;
#98 =( LENGTH_UNIT ( ) NAMED_UNIT ( * ) SI_UNIT ( .MILLI., .METRE. ) );
#99 = CC_DESIGN_PERSON_AND_ORGANIZATION_ASSIGNMENT ( #271, #267, ( #139 ) ) ;
#100 = DIRECTION ( 'NONE',  ( -4.015840023048973552E-31, -1.000000000000000000, -1.318751556455001724E-16 ) ) ;
#101 = SECURITY_CLASSIFICATION ( '', '', #270 ) ;
#102 = CARTESIAN_POINT ( 'NONE',  ( 4.957903501157248607E-13, -1.738998454789241313E-14, 142.0000000000000000 ) ) ;
#103 = CARTESIAN_POINT ( 'NONE',  ( 4.957903501157248607E-13, -1.738998454789241313E-14, 142.0000000000000000 ) ) ;
#104 = CIRCLE ( 'NONE', #146, 5.255000000000002558 ) ;
#105 = FACE_OUTER_BOUND ( 'NONE', #274, .T. ) ;
#106 = ADVANCED_FACE ( 'NONE', ( #16, #12 ), #60, .T. ) ;
#107 = VERTEX_POINT ( 'NONE', #221 ) ;
#108 = CARTESIAN_POINT ( 'NONE',  ( 6.633814543801952113E-14, 5.754999999999997229, 19.00000000000000000 ) ) ;
#109 = APPLICATION_PROTOCOL_DEFINITION ( 'international standard', 'config_control_design', 1994, #114 ) ;
#110 = DATE_AND_TIME ( #3, #162 ) ;
#111 = ADVANCED_FACE ( 'NONE', ( #77, #189 ), #32, .T. ) ;
#112 = PERSON_AND_ORGANIZATION_ROLE ( 'creator' ) ;
#113 = APPROVAL_DATE_TIME ( #110, #220 ) ;
#114 = APPLICATION_CONTEXT ( 'configuration controlled 3d designs of mechanical parts and assemblies' ) ;
#115 = AXIS2_PLACEMENT_3D ( 'NONE', #216, #148, #133 ) ;
#116 = COORDINATED_UNIVERSAL_TIME_OFFSET ( 1, 0, .AHEAD. ) ;
#117 = CC_DESIGN_PERSON_AND_ORGANIZATION_ASSIGNMENT ( #69, #161, ( #222 ) ) ;
#118 = EDGE_LOOP ( 'NONE', ( #50 ) ) ;
#119 = DATE_AND_TIME ( #223, #122 ) ;
#120 = AXIS2_PLACEMENT_3D ( 'NONE', #241, #19, #100 ) ;
#121 = CARTESIAN_POINT ( 'NONE',  ( 6.633814543801952113E-14, -2.326828918379970970E-15, 19.00000000000000000 ) ) ;
#122 = LOCAL_TIME ( 9, 36, 39.00000000000000000, #134 ) ;
#123 = AXIS2_PLACEMENT_3D ( 'NONE', #215, #210, #96 ) ;
#124 = CARTESIAN_POINT ( 'NONE',  ( 0.0000000000000000000, 0.0000000000000000000, 0.0000000000000000000 ) ) ;
#125 = VERTEX_POINT ( 'NONE', #62 ) ;
#126 = CC_DESIGN_DATE_AND_TIME_ASSIGNMENT ( #247, #66, ( #101 ) ) ;
#127 = EDGE_LOOP ( 'NONE', ( #142 ) ) ;
#128 = DIRECTION ( 'NONE',  ( 4.275831445896958607E-31, 1.000000000000000000, 1.224646799147353207E-16 ) ) ;
#129 = DIRECTION ( 'NONE',  ( -3.491481338843133355E-15, 1.224646799147353207E-16, -1.000000000000000000 ) ) ;
#130 = CARTESIAN_POINT ( 'NONE',  ( 3.351822085289408021E-13, -1.214306433183764966E-14, 96.00000000000000000 ) ) ;
#131 = DIRECTION ( 'NONE',  ( 0.0000000000000000000, 1.000000000000000000, 0.0000000000000000000 ) ) ;
#132 = CARTESIAN_POINT ( 'NONE',  ( 4.922988687768816390E-13, 5.999999999999984013, 140.9999999999999716 ) ) ;
#133 = DIRECTION ( 'NONE',  ( 4.275831445896958607E-31, 1.000000000000000000, 1.224646799147353207E-16 ) ) ;
#134 = COORDINATED_UNIVERSAL_TIME_OFFSET ( 1, 0, .AHEAD. ) ;
#135 = EDGE_CURVE ( 'NONE', #17, #17, #163, .T. ) ;
#136 = CARTESIAN_POINT ( 'NONE',  ( 0.0000000000000000000, 0.0000000000000000000, 0.0000000000000000000 ) ) ;
#137 = ORIENTED_EDGE ( 'NONE', *, *, #200, .T. ) ;
#138 = CONICAL_SURFACE ( 'NONE', #120, 5.754999999999997229, 0.7853981633974427279 ) ;
#139 = PRODUCT ( '963742', '963742', '', ( #184 ) ) ;
#140 = CC_DESIGN_APPROVAL ( #72, ( #101 ) ) ;
#141 = AXIS2_PLACEMENT_3D ( 'NONE', #38, #79, #262 ) ;
#142 = ORIENTED_EDGE ( 'NONE', *, *, #207, .F. ) ;
#143 = FACE_OUTER_BOUND ( 'NONE', #282, .T. ) ;
#144 = DIRECTION ( 'NONE',  ( 3.491481338843133355E-15, -1.224646799147353207E-16, 1.000000000000000000 ) ) ;
#145 = CARTESIAN_POINT ( 'NONE',  ( 1.745740669421564114E-15, -6.123233995736757408E-17, 0.4999999999999992784 ) ) ;
#146 = AXIS2_PLACEMENT_3D ( 'NONE', #263, #278, #1 ) ;
#147 = CYLINDRICAL_SURFACE ( 'NONE', #141, 5.999999999999998224 ) ;
#148 = DIRECTION ( 'NONE',  ( -3.491481338843133355E-15, 1.224646799147353207E-16, -1.000000000000000000 ) ) ;
#149 = ORIENTED_EDGE ( 'NONE', *, *, #206, .F. ) ;
#150 = CARTESIAN_POINT ( 'NONE',  ( 3.416555881846535738E-13, -1.198366486529116725E-14, 97.85404962177391042 ) ) ;
#151 = CC_DESIGN_SECURITY_CLASSIFICATION ( #101, ( #222 ) ) ;
#152 = DIRECTION ( 'NONE',  ( 0.0000000000000000000, 1.000000000000000000, 0.0000000000000000000 ) ) ;
#153 = TOROIDAL_SURFACE ( 'NONE', #43, 6.750000000000001776, 1.999999999999997113 ) ;
#154 = CYLINDRICAL_SURFACE ( 'NONE', #115, 4.749999999999995559 ) ;
#155 = PERSON_AND_ORGANIZATION ( #201, #4 ) ;
#156 = DATE_AND_TIME ( #182, #63 ) ;
#157 = CIRCLE ( 'NONE', #22, 5.999999999999994671 ) ;
#158 = CALENDAR_DATE ( 2021, 2, 12 ) ;
#159 = EDGE_CURVE ( 'NONE', #196, #196, #157, .T. ) ;
#160 = MANIFOLD_SOLID_BREP ( 'Corps-Déplacer/Copier1[1]', #94 ) ;
#161 = PERSON_AND_ORGANIZATION_ROLE ( 'design_supplier' ) ;
#162 = LOCAL_TIME ( 9, 36, 39.00000000000000000, #49 ) ;
#163 = CIRCLE ( 'NONE', #209, 6.000000000000000888 ) ;
#164 = ORIENTED_EDGE ( 'NONE', *, *, #26, .T. ) ;
#165 = ADVANCED_FACE ( 'NONE', ( #192, #58 ), #147, .T. ) ;
#166 = EDGE_LOOP ( 'NONE', ( #73 ) ) ;
#167 = AXIS2_PLACEMENT_3D ( 'NONE', #56, #232, #33 ) ;
#168 = FACE_OUTER_BOUND ( 'NONE', #9, .T. ) ;
#169 = CC_DESIGN_PERSON_AND_ORGANIZATION_ASSIGNMENT ( #28, #112, ( #222 ) ) ;
#170 = CARTESIAN_POINT ( 'NONE',  ( 6.633814543801952113E-14, -2.326828918379970970E-15, 19.00000000000000000 ) ) ;
#171 = DIRECTION ( 'NONE',  ( 0.0000000000000000000, 1.000000000000000000, 0.0000000000000000000 ) ) ;
#172 = DIRECTION ( 'NONE',  ( -4.275831445896958607E-31, -1.000000000000000000, -1.224646799147353207E-16 ) ) ;
#173 = ORIENTED_EDGE ( 'NONE', *, *, #159, .F. ) ;
#174 = CARTESIAN_POINT ( 'NONE',  ( 3.351822085289408021E-13, -1.175660927181459158E-14, 96.00000000000000000 ) ) ;
#175 = DIRECTION ( 'NONE',  ( 0.0000000000000000000, 1.000000000000000000, 0.0000000000000000000 ) ) ;
#176 = CONICAL_SURFACE ( 'NONE', #236, 5.000000000000000888, 0.7853981633974339571 ) ;
#177 = CC_DESIGN_PERSON_AND_ORGANIZATION_ASSIGNMENT ( #228, #29, ( #101 ) ) ;
#178 = APPROVAL_ROLE ( '' ) ;
#179 = APPLICATION_PROTOCOL_DEFINITION ( 'international standard', 'config_control_design', 1994, #180 ) ;
#180 = APPLICATION_CONTEXT ( 'configuration controlled 3d designs of mechanical parts and assemblies' ) ;
#181 = CIRCLE ( 'NONE', #187, 5.754999999999999893 ) ;
#182 = CALENDAR_DATE ( 2021, 2, 12 ) ;
#183 = ADVANCED_FACE ( 'NONE', ( #143 ), #188, .T. ) ;
#184 = MECHANICAL_CONTEXT ( 'NONE', #180, 'mechanical' ) ;
#185 = ORIENTED_EDGE ( 'NONE', *, *, #225, .T. ) ;
#186 = EDGE_LOOP ( 'NONE', ( #185 ) ) ;
#187 = AXIS2_PLACEMENT_3D ( 'NONE', #170, #64, #152 ) ;
#188 = PLANE ( 'NONE',  #167 ) ;
#189 = FACE_BOUND ( 'NONE', #52, .T. ) ;
#190 = VERTEX_POINT ( 'NONE', #42 ) ;
#191 = CC_DESIGN_APPROVAL ( #220, ( #244 ) ) ;
#192 = FACE_OUTER_BOUND ( 'NONE', #197, .T. ) ;
#193 = DIRECTION ( 'NONE',  ( -3.491481338843133355E-15, 1.224646799147353207E-16, -1.000000000000000000 ) ) ;
#194 = CIRCLE ( 'NONE', #18, 5.754999999999999893 ) ;
#195 = EDGE_LOOP ( 'NONE', ( #234 ) ) ;
#196 = VERTEX_POINT ( 'NONE', #37 ) ;
#197 = EDGE_LOOP ( 'NONE', ( #173 ) ) ;
#198 = PLANE ( 'NONE',  #87 ) ;
#199 = LOCAL_TIME ( 9, 36, 39.00000000000000000, #116 ) ;
#200 = EDGE_CURVE ( 'NONE', #283, #283, #194, .T. ) ;
#201 = PERSON ( 'UNSPECIFIED', 'UNSPECIFIED', 'UNSPECIFIED', ('UNSPECIFIED'), ('UNSPECIFIED'), ('UNSPECIFIED') ) ;
#202 = APPROVAL_PERSON_ORGANIZATION ( #6, #220, #178 ) ;
#203 = PERSON_AND_ORGANIZATION ( #201, #4 ) ;
#204 = APPROVAL_ROLE ( '' ) ;
#205 = CIRCLE ( 'NONE', #227, 5.754999999999997229 ) ;
#206 = EDGE_CURVE ( 'NONE', #190, #190, #181, .T. ) ;
#207 = EDGE_CURVE ( 'NONE', #125, #125, #90, .T. ) ;
#208 = DIRECTION ( 'NONE',  ( -3.491481338843133355E-15, 1.224646799147353207E-16, -1.000000000000000000 ) ) ;
#209 = AXIS2_PLACEMENT_3D ( 'NONE', #255, #14, #97 ) ;
#210 = DIRECTION ( 'NONE',  ( -3.491481338843133355E-15, 1.224646799147353207E-16, -1.000000000000000000 ) ) ;
#211 = DIRECTION ( 'NONE',  ( -3.491481338843133355E-15, 1.224646799147353207E-16, -1.000000000000000000 ) ) ;
#212 = DIRECTION ( 'NONE',  ( 4.275831445896958607E-31, 1.000000000000000000, 1.224646799147353207E-16 ) ) ;
#213 = DIRECTION ( 'NONE',  ( 0.0000000000000000000, 1.000000000000000000, 0.0000000000000000000 ) ) ;
#214 = ADVANCED_FACE ( 'NONE', ( #265 ), #198, .F. ) ;
#215 = CARTESIAN_POINT ( 'NONE',  ( 7.241580562593736162E-14, -2.540004541363681983E-15, 20.74071106160675981 ) ) ;
#216 = CARTESIAN_POINT ( 'NONE',  ( 0.0000000000000000000, 0.0000000000000000000, 0.0000000000000000000 ) ) ;
#217 = CIRCLE ( 'NONE', #7, 4.750000000000001776 ) ;
#218 = DIRECTION ( 'NONE',  ( -4.275831445896958607E-31, -1.000000000000000000, -1.224646799147353207E-16 ) ) ;
#219 = VERTEX_POINT ( 'NONE', #20 ) ;
#220 = APPROVAL ( #88, 'UNSPECIFIED' ) ;
#221 = CARTESIAN_POINT ( 'NONE',  ( 1.745740669421566283E-15, 5.754999999999997229, 0.5000000000000000000 ) ) ;
#222 = PRODUCT_DEFINITION_FORMATION_WITH_SPECIFIED_SOURCE ( 'ANY', '', #139, .NOT_KNOWN. ) ;
#223 = CALENDAR_DATE ( 2021, 2, 12 ) ;
#224 =( NAMED_UNIT ( * ) SI_UNIT ( $, .STERADIAN. ) SOLID_ANGLE_UNIT ( ) );
#225 = EDGE_CURVE ( 'NONE', #13, #13, #217, .T. ) ;
#226 = PERSON_AND_ORGANIZATION ( #201, #4 ) ;
#227 = AXIS2_PLACEMENT_3D ( 'NONE', #145, #266, #240 ) ;
#228 = PERSON_AND_ORGANIZATION ( #201, #4 ) ;
#229 = ORIENTED_EDGE ( 'NONE', *, *, #206, .T. ) ;
#230 = EDGE_LOOP ( 'NONE', ( #252 ) ) ;
#231 = ADVANCED_FACE ( 'NONE', ( #78, #15 ), #153, .F. ) ;
#232 = DIRECTION ( 'NONE',  ( 3.491481338843133355E-15, -1.224646799147353207E-16, 1.000000000000000000 ) ) ;
#233 = APPROVAL_DATE_TIME ( #119, #72 ) ;
#234 = ORIENTED_EDGE ( 'NONE', *, *, #264, .F. ) ;
#235 = CARTESIAN_POINT ( 'NONE',  ( 4.957903501157248607E-13, 3.749399456654618840E-32, 142.0000000000000000 ) ) ;
#236 = AXIS2_PLACEMENT_3D ( 'NONE', #103, #129, #131 ) ;
#237 = CARTESIAN_POINT ( 'NONE',  ( 6.633814543801952113E-14, 4.315558774609491462E-32, 19.00000000000000000 ) ) ;
#238 = FACE_OUTER_BOUND ( 'NONE', #249, .T. ) ;
#239 = ORIENTED_EDGE ( 'NONE', *, *, #207, .T. ) ;
#240 = DIRECTION ( 'NONE',  ( 4.015840023048973552E-31, 1.000000000000000000, 1.318751556455001724E-16 ) ) ;
#241 = CARTESIAN_POINT ( 'NONE',  ( 1.745740669421564114E-15, -6.123233995736757408E-17, 0.4999999999999992784 ) ) ;
#242 = AXIS2_PLACEMENT_3D ( 'NONE', #235, #193, #128 ) ;
#243 = CARTESIAN_POINT ( 'NONE',  ( 7.241580562593736162E-14, -2.540004541363681983E-15, 20.74071106160675981 ) ) ;
#244 = PRODUCT_DEFINITION ( 'UNKNOWN', '', #222, #91 ) ;
#245 = PLANE ( 'NONE',  #242 ) ;
#246 = APPROVAL_STATUS ( 'not_yet_approved' ) ;
#247 = DATE_AND_TIME ( #158, #199 ) ;
#248 = CALENDAR_DATE ( 2021, 2, 12 ) ;
#249 = EDGE_LOOP ( 'NONE', ( #259 ) ) ;
#250 = AXIS2_PLACEMENT_3D ( 'NONE', #136, #47, #24 ) ;
#251 = EDGE_CURVE ( 'NONE', #219, #219, #75, .T. ) ;
#252 = ORIENTED_EDGE ( 'NONE', *, *, #200, .F. ) ;
#253 = AXIS2_PLACEMENT_3D ( 'NONE', #237, #144, #218 ) ;
#254 = MANIFOLD_SOLID_BREP ( 'Corps-Déplacer/Copier1[2]', #261 ) ;
#255 = CARTESIAN_POINT ( 'NONE',  ( 4.922988687768816390E-13, -1.726751986797767482E-14, 140.9999999999999716 ) ) ;
#256 = DIRECTION ( 'NONE',  ( -3.491481338843133355E-15, 1.224646799147353207E-16, -1.000000000000000000 ) ) ;
#257 = DIRECTION ( 'NONE',  ( -3.491481338843133355E-15, 1.224646799147353207E-16, -1.000000000000000000 ) ) ;
#258 = APPROVAL_PERSON_ORGANIZATION ( #155, #72, #46 ) ;
#259 = ORIENTED_EDGE ( 'NONE', *, *, #251, .F. ) ;
#260 = DIRECTION ( 'NONE',  ( -3.491481338843133355E-15, 1.224646799147353207E-16, -1.000000000000000000 ) ) ;
#261 = CLOSED_SHELL ( 'NONE', ( #214, #45, #106, #183 ) ) ;
#262 = DIRECTION ( 'NONE',  ( 4.275831445896958607E-31, 1.000000000000000000, 1.224646799147353207E-16 ) ) ;
#263 = CARTESIAN_POINT ( 'NONE',  ( -2.246949424818852922E-30, 7.881237657888066163E-32, -6.435518929519344973E-16 ) ) ;
#264 = EDGE_CURVE ( 'NONE', #107, #107, #205, .T. ) ;
#265 = FACE_OUTER_BOUND ( 'NONE', #54, .T. ) ;
#266 = DIRECTION ( 'NONE',  ( -3.491481338843133355E-15, 1.224646799147353207E-16, -1.000000000000000000 ) ) ;
#267 = PERSON_AND_ORGANIZATION_ROLE ( 'design_owner' ) ;
#268 = ADVANCED_FACE ( 'NONE', ( #59, #21 ), #154, .T. ) ;
#269 = APPROVAL_DATE_TIME ( #89, #272 ) ;
#270 = SECURITY_CLASSIFICATION_LEVEL ( 'unclassified' ) ;
#271 = PERSON_AND_ORGANIZATION ( #201, #4 ) ;
#272 = APPROVAL ( #70, 'UNSPECIFIED' ) ;
#273 = LOCAL_TIME ( 9, 36, 39.00000000000000000, #5 ) ;
#274 = EDGE_LOOP ( 'NONE', ( #36 ) ) ;
#275 = SHAPE_DEFINITION_REPRESENTATION ( #53, #25 ) ;
#276 = ADVANCED_FACE ( 'NONE', ( #238 ), #245, .F. ) ;
#277 = ORIENTED_EDGE ( 'NONE', *, *, #251, .T. ) ;
#278 = DIRECTION ( 'NONE',  ( -3.491481338843133355E-15, 1.224646799147353207E-16, -1.000000000000000000 ) ) ;
#279 = CC_DESIGN_PERSON_AND_ORGANIZATION_ASSIGNMENT ( #203, #67, ( #244 ) ) ;
#280 = FACE_OUTER_BOUND ( 'NONE', #166, .T. ) ;
#281 = EDGE_LOOP ( 'NONE', ( #93 ) ) ;
#282 = EDGE_LOOP ( 'NONE', ( #149 ) ) ;
#283 = VERTEX_POINT ( 'NONE', #108 ) ;
ENDSEC;
END-ISO-10303-21;
