ISO-10303-21;
HEADER;
FILE_DESCRIPTION (( 'STEP AP203' ),
    '1' );
FILE_NAME ('963741.step',
    '2021-12-02T08:36:38',
    ( '' ),
    ( '' ),
    'SwSTEP 2.0',
    'SolidWorks 2019',
    '' );
FILE_SCHEMA (( 'CONFIG_CONTROL_DESIGN' ));
ENDSEC;

DATA;
#1 = DIRECTION ( 'NONE',  ( -4.022830171043836441E-31, -1.000000000000000000, -1.132326028705488155E-16 ) ) ;
#2 = ORIENTED_EDGE ( 'NONE', *, *, #33, .T. ) ;
#3 = DIRECTION ( 'NONE',  ( 0.0000000000000000000, 1.000000000000000000, 0.0000000000000000000 ) ) ;
#4 = ORIENTED_EDGE ( 'NONE', *, *, #227, .T. ) ;
#5 = DIRECTION ( 'NONE',  ( 3.491481338843133355E-15, -1.224646799147353207E-16, 1.000000000000000000 ) ) ;
#6 = VERTEX_POINT ( 'NONE', #91 ) ;
#7 = PRODUCT_DEFINITION ( 'UNKNOWN', '', #34, #79 ) ;
#8 = DIRECTION ( 'NONE',  ( 0.0000000000000000000, 1.000000000000000000, 0.0000000000000000000 ) ) ;
#9 = DIRECTION ( 'NONE',  ( 4.275831445896958607E-31, 1.000000000000000000, 1.224646799147353454E-16 ) ) ;
#10 = DATE_TIME_ROLE ( 'creation_date' ) ;
#11 =( NAMED_UNIT ( * ) PLANE_ANGLE_UNIT ( ) SI_UNIT ( $, .RADIAN. ) );
#12 = AXIS2_PLACEMENT_3D ( 'NONE', #187, #283, #1 ) ;
#13 = CALENDAR_DATE ( 2021, 2, 12 ) ;
#14 = PERSON_AND_ORGANIZATION ( #204, #162 ) ;
#15 = CC_DESIGN_APPROVAL ( #237, ( #7 ) ) ;
#16 = PERSON_AND_ORGANIZATION ( #204, #162 ) ;
#17 = FACE_OUTER_BOUND ( 'NONE', #251, .T. ) ;
#18 = DIRECTION ( 'NONE',  ( -3.491481338843133355E-15, 1.224646799147353207E-16, -1.000000000000000000 ) ) ;
#19 = CIRCLE ( 'NONE', #199, 5.000000000000000888 ) ;
#20 = PLANE ( 'NONE',  #73 ) ;
#21 = SECURITY_CLASSIFICATION_LEVEL ( 'unclassified' ) ;
#22 = FACE_OUTER_BOUND ( 'NONE', #191, .T. ) ;
#23 = EDGE_LOOP ( 'NONE', ( #4 ) ) ;
#24 = AXIS2_PLACEMENT_3D ( 'NONE', #220, #27, #8 ) ;
#25 = CC_DESIGN_DATE_AND_TIME_ASSIGNMENT ( #209, #234, ( #47 ) ) ;
#26 = AXIS2_PLACEMENT_3D ( 'NONE', #116, #246, #137 ) ;
#27 = DIRECTION ( 'NONE',  ( -3.491481338843133355E-15, 1.224646799147353207E-16, -1.000000000000000000 ) ) ;
#28 = EDGE_CURVE ( 'NONE', #111, #111, #104, .T. ) ;
#29 = CARTESIAN_POINT ( 'NONE',  ( 6.633814543801952113E-14, -2.326828918379970970E-15, 19.00000000000000000 ) ) ;
#30 = DIRECTION ( 'NONE',  ( 4.275831445896958607E-31, 1.000000000000000000, 1.224646799147353207E-16 ) ) ;
#31 = CYLINDRICAL_SURFACE ( 'NONE', #219, 5.744999999999998330 ) ;
#32 = COORDINATED_UNIVERSAL_TIME_OFFSET ( 1, 0, .AHEAD. ) ;
#33 = EDGE_CURVE ( 'NONE', #6, #6, #19, .T. ) ;
#34 = PRODUCT_DEFINITION_FORMATION_WITH_SPECIFIED_SOURCE ( 'ANY', '', #135, .NOT_KNOWN. ) ;
#35 = TOROIDAL_SURFACE ( 'NONE', #82, 6.750000000000001776, 1.999999999999997113 ) ;
#36 = CALENDAR_DATE ( 2021, 2, 12 ) ;
#37 = APPROVAL ( #160, 'UNSPECIFIED' ) ;
#38 = AXIS2_PLACEMENT_3D ( 'NONE', #93, #218, #136 ) ;
#39 =( LENGTH_UNIT ( ) NAMED_UNIT ( * ) SI_UNIT ( .MILLI., .METRE. ) );
#40 = EDGE_LOOP ( 'NONE', ( #233 ) ) ;
#41 = ORIENTED_EDGE ( 'NONE', *, *, #280, .T. ) ;
#42 = DIRECTION ( 'NONE',  ( -4.275831445896958607E-31, -1.000000000000000000, -1.224646799147353207E-16 ) ) ;
#43 = ORIENTED_EDGE ( 'NONE', *, *, #123, .T. ) ;
#44 = CC_DESIGN_PERSON_AND_ORGANIZATION_ASSIGNMENT ( #55, #250, ( #135 ) ) ;
#45 = ORIENTED_EDGE ( 'NONE', *, *, #280, .F. ) ;
#46 = FACE_OUTER_BOUND ( 'NONE', #146, .T. ) ;
#47 = SECURITY_CLASSIFICATION ( '', '', #21 ) ;
#48 = APPLICATION_CONTEXT ( 'configuration controlled 3d designs of mechanical parts and assemblies' ) ;
#49 = CONICAL_SURFACE ( 'NONE', #105, 4.749999999999990230, 0.5235987755982929315 ) ;
#50 = FACE_OUTER_BOUND ( 'NONE', #57, .T. ) ;
#51 = DIRECTION ( 'NONE',  ( -3.491481338843133355E-15, 1.224646799147353207E-16, -1.000000000000000000 ) ) ;
#52 = PLANE ( 'NONE',  #118 ) ;
#53 = DIRECTION ( 'NONE',  ( -3.491481338843133355E-15, 1.224646799147353207E-16, -1.000000000000000000 ) ) ;
#54 = CARTESIAN_POINT ( 'NONE',  ( 1.514188661106529085E-30, 5.245000000000002771, 4.336808689942017736E-16 ) ) ;
#55 = PERSON_AND_ORGANIZATION ( #204, #162 ) ;
#56 = CARTESIAN_POINT ( 'NONE',  ( 6.633814543801952113E-14, 5.744999999999997442, 19.00000000000000000 ) ) ;
#57 = EDGE_LOOP ( 'NONE', ( #168 ) ) ;
#58 = APPLICATION_PROTOCOL_DEFINITION ( 'international standard', 'config_control_design', 1994, #238 ) ;
#59 = CARTESIAN_POINT ( 'NONE',  ( 0.0000000000000000000, 0.0000000000000000000, 0.0000000000000000000 ) ) ;
#60 = ORIENTED_EDGE ( 'NONE', *, *, #176, .T. ) ;
#61 = EDGE_LOOP ( 'NONE', ( #41 ) ) ;
#62 = FACE_BOUND ( 'NONE', #23, .T. ) ;
#63 = SHAPE_DEFINITION_REPRESENTATION ( #127, #193 ) ;
#64 = MANIFOLD_SOLID_BREP ( 'Corps-Déplacer/Copier1[2]', #72 ) ;
#65 = AXIS2_PLACEMENT_3D ( 'NONE', #59, #161, #122 ) ;
#66 = EDGE_LOOP ( 'NONE', ( #2 ) ) ;
#67 = APPROVAL_ROLE ( '' ) ;
#68 = CARTESIAN_POINT ( 'NONE',  ( 4.957903501157248607E-13, -1.738998454789241313E-14, 142.0000000000000000 ) ) ;
#69 = CYLINDRICAL_SURFACE ( 'NONE', #154, 5.999999999999998224 ) ;
#70 = DIRECTION ( 'NONE',  ( -3.491481338843133355E-15, 1.224646799147353207E-16, -1.000000000000000000 ) ) ;
#71 =( GEOMETRIC_REPRESENTATION_CONTEXT ( 3 ) GLOBAL_UNCERTAINTY_ASSIGNED_CONTEXT ( ( #186 ) ) GLOBAL_UNIT_ASSIGNED_CONTEXT ( ( #39, #11, #164 ) ) REPRESENTATION_CONTEXT ( 'NONE', 'WORKASPACE' ) );
#72 = CLOSED_SHELL ( 'NONE', ( #206, #133, #202, #272 ) ) ;
#73 = AXIS2_PLACEMENT_3D ( 'NONE', #169, #241, #42 ) ;
#74 = DIRECTION ( 'NONE',  ( -3.491481338843133355E-15, 1.224646799147353207E-16, -1.000000000000000000 ) ) ;
#75 = FACE_OUTER_BOUND ( 'NONE', #107, .T. ) ;
#76 = CC_DESIGN_PERSON_AND_ORGANIZATION_ASSIGNMENT ( #124, #240, ( #47 ) ) ;
#77 = APPROVAL_STATUS ( 'not_yet_approved' ) ;
#78 = ORIENTED_EDGE ( 'NONE', *, *, #176, .F. ) ;
#79 = DESIGN_CONTEXT ( 'detailed design', #48, 'design' ) ;
#80 = CIRCLE ( 'NONE', #181, 5.745000000000000107 ) ;
#81 = DIRECTION ( 'NONE',  ( -3.491481338843133355E-15, 1.224646799147353207E-16, -1.000000000000000000 ) ) ;
#82 = AXIS2_PLACEMENT_3D ( 'NONE', #178, #51, #271 ) ;
#83 = COORDINATED_UNIVERSAL_TIME_OFFSET ( 1, 0, .AHEAD. ) ;
#84 = EDGE_LOOP ( 'NONE', ( #195 ) ) ;
#85 = DIRECTION ( 'NONE',  ( 0.0000000000000000000, 1.000000000000000000, 0.0000000000000000000 ) ) ;
#86 = CC_DESIGN_APPROVAL ( #37, ( #34 ) ) ;
#87 = APPROVAL_STATUS ( 'not_yet_approved' ) ;
#88 = ORIENTED_EDGE ( 'NONE', *, *, #265, .F. ) ;
#89 = DIRECTION ( 'NONE',  ( -4.275831445896958607E-31, -1.000000000000000000, -1.224646799147353207E-16 ) ) ;
#90 = CARTESIAN_POINT ( 'NONE',  ( 6.633814543801952113E-14, 4.308059975696182119E-32, 19.00000000000000000 ) ) ;
#91 = CARTESIAN_POINT ( 'NONE',  ( 4.957903501157248607E-13, 4.999999999999984013, 142.0000000000000000 ) ) ;
#92 = CARTESIAN_POINT ( 'NONE',  ( 6.633814543801952113E-14, 5.744999999999997442, 19.00000000000000000 ) ) ;
#93 = CARTESIAN_POINT ( 'NONE',  ( 7.235533139521181154E-14, -2.537883390886232289E-15, 20.72339055353107184 ) ) ;
#94 = CONICAL_SURFACE ( 'NONE', #131, 5.000000000000000888, 0.7853981633974339571 ) ;
#95 = VERTEX_POINT ( 'NONE', #143 ) ;
#96 = AXIS2_PLACEMENT_3D ( 'NONE', #151, #134, #155 ) ;
#97 = PERSON_AND_ORGANIZATION ( #204, #162 ) ;
#98 = PERSON_AND_ORGANIZATION_ROLE ( 'creator' ) ;
#99 = COORDINATED_UNIVERSAL_TIME_OFFSET ( 1, 0, .AHEAD. ) ;
#100 = APPROVAL ( #87, 'UNSPECIFIED' ) ;
#101 = DIRECTION ( 'NONE',  ( 0.0000000000000000000, 1.000000000000000000, 0.0000000000000000000 ) ) ;
#102 = APPROVAL_PERSON_ORGANIZATION ( #97, #37, #248 ) ;
#103 = EDGE_LOOP ( 'NONE', ( #263 ) ) ;
#104 = CIRCLE ( 'NONE', #269, 4.750000000000001776 ) ;
#105 = AXIS2_PLACEMENT_3D ( 'NONE', #217, #235, #85 ) ;
#106 = EDGE_CURVE ( 'NONE', #177, #177, #80, .T. ) ;
#107 = EDGE_LOOP ( 'NONE', ( #60 ) ) ;
#108 = FACE_OUTER_BOUND ( 'NONE', #171, .T. ) ;
#109 = EDGE_LOOP ( 'NONE', ( #210 ) ) ;
#110 = FACE_OUTER_BOUND ( 'NONE', #103, .T. ) ;
#111 = VERTEX_POINT ( 'NONE', #197 ) ;
#112 = FACE_BOUND ( 'NONE', #66, .T. ) ;
#113 = CC_DESIGN_APPROVAL ( #100, ( #47 ) ) ;
#114 = CC_DESIGN_PERSON_AND_ORGANIZATION_ASSIGNMENT ( #224, #185, ( #7 ) ) ;
#115 = FACE_OUTER_BOUND ( 'NONE', #226, .T. ) ;
#116 = CARTESIAN_POINT ( 'NONE',  ( 1.745740669421564508E-15, -6.123233995736758640E-17, 0.4999999999999993339 ) ) ;
#117 = APPROVAL_ROLE ( '' ) ;
#118 = AXIS2_PLACEMENT_3D ( 'NONE', #268, #273, #89 ) ;
#119 = DATE_AND_TIME ( #36, #236 ) ;
#120 = VERTEX_POINT ( 'NONE', #56 ) ;
#121 = CC_DESIGN_SECURITY_CLASSIFICATION ( #47, ( #34 ) ) ;
#122 = DIRECTION ( 'NONE',  ( 1.000000000000000000, 0.0000000000000000000, 0.0000000000000000000 ) ) ;
#123 = EDGE_CURVE ( 'NONE', #180, #180, #205, .T. ) ;
#124 = PERSON_AND_ORGANIZATION ( #204, #162 ) ;
#125 = ORIENTED_EDGE ( 'NONE', *, *, #221, .T. ) ;
#126 = EDGE_LOOP ( 'NONE', ( #43 ) ) ;
#127 = PRODUCT_DEFINITION_SHAPE ( 'NONE', 'NONE',  #7 ) ;
#128 = AXIS2_PLACEMENT_3D ( 'NONE', #29, #223, #173 ) ;
#129 = FACE_BOUND ( 'NONE', #276, .T. ) ;
#130 = DIRECTION ( 'NONE',  ( 0.0000000000000000000, 1.000000000000000000, 0.0000000000000000000 ) ) ;
#131 = AXIS2_PLACEMENT_3D ( 'NONE', #196, #70, #157 ) ;
#132 = CYLINDRICAL_SURFACE ( 'NONE', #96, 4.749999999999995559 ) ;
#133 = ADVANCED_FACE ( 'NONE', ( #129, #17 ), #270, .T. ) ;
#134 = DIRECTION ( 'NONE',  ( -3.491481338843133355E-15, 1.224646799147353207E-16, -1.000000000000000000 ) ) ;
#135 = PRODUCT ( '963741', '963741', '', ( #203 ) ) ;
#136 = DIRECTION ( 'NONE',  ( 0.0000000000000000000, 1.000000000000000000, 0.0000000000000000000 ) ) ;
#137 = DIRECTION ( 'NONE',  ( 4.022830171043836441E-31, 1.000000000000000000, 1.132326028705488155E-16 ) ) ;
#138 = DIRECTION ( 'NONE',  ( 4.275831445896958607E-31, 1.000000000000000000, 1.224646799147353207E-16 ) ) ;
#139 = VERTEX_POINT ( 'NONE', #182 ) ;
#140 = LOCAL_TIME ( 9, 36, 38.00000000000000000, #149 ) ;
#141 = CALENDAR_DATE ( 2021, 2, 12 ) ;
#142 = CIRCLE ( 'NONE', #167, 5.245000000000002771 ) ;
#143 = CARTESIAN_POINT ( 'NONE',  ( 1.745740669421566678E-15, 5.744999999999997442, 0.5000000000000000000 ) ) ;
#144 = ORIENTED_EDGE ( 'NONE', *, *, #227, .F. ) ;
#145 = CIRCLE ( 'NONE', #26, 5.744999999999997442 ) ;
#146 = EDGE_LOOP ( 'NONE', ( #259 ) ) ;
#147 = CARTESIAN_POINT ( 'NONE',  ( 4.922988687768816390E-13, -1.726751986797767482E-14, 140.9999999999999716 ) ) ;
#148 = DIRECTION ( 'NONE',  ( -3.491481338843133355E-15, 1.224646799147353207E-16, -1.000000000000000000 ) ) ;
#149 = COORDINATED_UNIVERSAL_TIME_OFFSET ( 1, 0, .AHEAD. ) ;
#150 = DIRECTION ( 'NONE',  ( -3.491481338843133355E-15, 1.224646799147353207E-16, -1.000000000000000000 ) ) ;
#151 = CARTESIAN_POINT ( 'NONE',  ( 0.0000000000000000000, 0.0000000000000000000, 0.0000000000000000000 ) ) ;
#152 = CIRCLE ( 'NONE', #24, 5.999999999999994671 ) ;
#153 = FACE_OUTER_BOUND ( 'NONE', #61, .T. ) ;
#154 = AXIS2_PLACEMENT_3D ( 'NONE', #174, #74, #30 ) ;
#155 = DIRECTION ( 'NONE',  ( 4.275831445896958607E-31, 1.000000000000000000, 1.224646799147353207E-16 ) ) ;
#156 = ADVANCED_FACE ( 'NONE', ( #22 ), #20, .F. ) ;
#157 = DIRECTION ( 'NONE',  ( 0.0000000000000000000, 1.000000000000000000, 0.0000000000000000000 ) ) ;
#158 = CARTESIAN_POINT ( 'NONE',  ( 4.957903501157248607E-13, 3.749399456654618840E-32, 142.0000000000000000 ) ) ;
#159 = PRODUCT_RELATED_PRODUCT_CATEGORY ( 'detail', '', ( #135 ) ) ;
#160 = APPROVAL_STATUS ( 'not_yet_approved' ) ;
#161 = DIRECTION ( 'NONE',  ( 0.0000000000000000000, 0.0000000000000000000, 1.000000000000000000 ) ) ;
#162 = ORGANIZATION ( 'UNSPECIFIED', 'UNSPECIFIED', '' ) ;
#163 = CC_DESIGN_DATE_AND_TIME_ASSIGNMENT ( #252, #10, ( #7 ) ) ;
#164 =( NAMED_UNIT ( * ) SI_UNIT ( $, .STERADIAN. ) SOLID_ANGLE_UNIT ( ) );
#165 = DIRECTION ( 'NONE',  ( 4.275831445896958607E-31, 1.000000000000000000, 1.224646799147353207E-16 ) ) ;
#166 = LOCAL_TIME ( 9, 36, 38.00000000000000000, #99 ) ;
#167 = AXIS2_PLACEMENT_3D ( 'NONE', #261, #148, #165 ) ;
#168 = ORIENTED_EDGE ( 'NONE', *, *, #106, .F. ) ;
#169 = CARTESIAN_POINT ( 'NONE',  ( 6.633814543801952113E-14, 4.308059975696182119E-32, 19.00000000000000000 ) ) ;
#170 = APPROVAL_PERSON_ORGANIZATION ( #16, #237, #117 ) ;
#171 = EDGE_LOOP ( 'NONE', ( #45 ) ) ;
#172 = ADVANCED_FACE ( 'NONE', ( #190, #62 ), #49, .T. ) ;
#173 = DIRECTION ( 'NONE',  ( 0.0000000000000000000, 1.000000000000000000, 0.0000000000000000000 ) ) ;
#174 = CARTESIAN_POINT ( 'NONE',  ( 0.0000000000000000000, 0.0000000000000000000, 0.0000000000000000000 ) ) ;
#175 = APPROVAL_PERSON_ORGANIZATION ( #254, #100, #67 ) ;
#176 = EDGE_CURVE ( 'NONE', #230, #230, #142, .T. ) ;
#177 = VERTEX_POINT ( 'NONE', #92 ) ;
#178 = CARTESIAN_POINT ( 'NONE',  ( 3.351822085289408021E-13, -1.214306433183764966E-14, 96.00000000000000000 ) ) ;
#179 = FACE_OUTER_BOUND ( 'NONE', #84, .T. ) ;
#180 = VERTEX_POINT ( 'NONE', #274 ) ;
#181 = AXIS2_PLACEMENT_3D ( 'NONE', #188, #81, #216 ) ;
#182 = CARTESIAN_POINT ( 'NONE',  ( 3.416555881846535738E-13, 5.999999999999983125, 97.85404962177391042 ) ) ;
#183 = PERSON_AND_ORGANIZATION ( #204, #162 ) ;
#184 = CIRCLE ( 'NONE', #128, 5.745000000000000107 ) ;
#185 = PERSON_AND_ORGANIZATION_ROLE ( 'creator' ) ;
#186 = UNCERTAINTY_MEASURE_WITH_UNIT (LENGTH_MEASURE( 1.000000000000000082E-05 ), #39, 'distance_accuracy_value', 'NONE');
#187 = CARTESIAN_POINT ( 'NONE',  ( 1.745740669421564508E-15, -6.123233995736758640E-17, 0.4999999999999993339 ) ) ;
#188 = CARTESIAN_POINT ( 'NONE',  ( 6.633814543801952113E-14, -2.326828918379970970E-15, 19.00000000000000000 ) ) ;
#189 = AXIS2_PLACEMENT_3D ( 'NONE', #147, #150, #101 ) ;
#190 = FACE_OUTER_BOUND ( 'NONE', #231, .T. ) ;
#191 = EDGE_LOOP ( 'NONE', ( #257 ) ) ;
#192 = ADVANCED_FACE ( 'NONE', ( #108, #239 ), #69, .T. ) ;
#193 = ADVANCED_BREP_SHAPE_REPRESENTATION ( '963741', ( #253, #64, #65 ), #71 ) ;
#194 = AXIS2_PLACEMENT_3D ( 'NONE', #90, #5, #242 ) ;
#195 = ORIENTED_EDGE ( 'NONE', *, *, #33, .F. ) ;
#196 = CARTESIAN_POINT ( 'NONE',  ( 4.957903501157248607E-13, -1.738998454789241313E-14, 142.0000000000000000 ) ) ;
#197 = CARTESIAN_POINT ( 'NONE',  ( 3.351822085289408021E-13, 4.749999999999989342, 96.00000000000000000 ) ) ;
#198 = ADVANCED_FACE ( 'NONE', ( #201, #153 ), #35, .F. ) ;
#199 = AXIS2_PLACEMENT_3D ( 'NONE', #68, #255, #130 ) ;
#200 = CARTESIAN_POINT ( 'NONE',  ( 0.0000000000000000000, 0.0000000000000000000, 0.0000000000000000000 ) ) ;
#201 = FACE_OUTER_BOUND ( 'NONE', #109, .T. ) ;
#202 = ADVANCED_FACE ( 'NONE', ( #115, #244 ), #31, .T. ) ;
#203 = MECHANICAL_CONTEXT ( 'NONE', #238, 'mechanical' ) ;
#204 = PERSON ( 'UNSPECIFIED', 'UNSPECIFIED', 'UNSPECIFIED', ('UNSPECIFIED'), ('UNSPECIFIED'), ('UNSPECIFIED') ) ;
#205 = CIRCLE ( 'NONE', #189, 6.000000000000000888 ) ;
#206 = ADVANCED_FACE ( 'NONE', ( #75 ), #52, .F. ) ;
#207 = APPROVAL_DATE_TIME ( #119, #37 ) ;
#208 = APPLICATION_PROTOCOL_DEFINITION ( 'international standard', 'config_control_design', 1994, #48 ) ;
#209 = DATE_AND_TIME ( #281, #282 ) ;
#210 = ORIENTED_EDGE ( 'NONE', *, *, #28, .F. ) ;
#211 = CC_DESIGN_PERSON_AND_ORGANIZATION_ASSIGNMENT ( #14, #98, ( #34 ) ) ;
#212 = CARTESIAN_POINT ( 'NONE',  ( 3.351822085289408021E-13, -1.175660927181459158E-14, 96.00000000000000000 ) ) ;
#213 = PERSON_AND_ORGANIZATION_ROLE ( 'design_supplier' ) ;
#214 = EDGE_LOOP ( 'NONE', ( #144 ) ) ;
#215 = ADVANCED_FACE ( 'NONE', ( #243, #46 ), #132, .T. ) ;
#216 = DIRECTION ( 'NONE',  ( 0.0000000000000000000, 1.000000000000000000, 0.0000000000000000000 ) ) ;
#217 = CARTESIAN_POINT ( 'NONE',  ( 7.235533139521181154E-14, -2.537883390886232289E-15, 20.72339055353107184 ) ) ;
#218 = DIRECTION ( 'NONE',  ( -3.491481338843133355E-15, 1.224646799147353207E-16, -1.000000000000000000 ) ) ;
#219 = AXIS2_PLACEMENT_3D ( 'NONE', #200, #266, #9 ) ;
#220 = CARTESIAN_POINT ( 'NONE',  ( 3.416555881846535738E-13, -1.198366486529116725E-14, 97.85404962177391042 ) ) ;
#221 = EDGE_CURVE ( 'NONE', #95, #95, #145, .T. ) ;
#222 = PLANE ( 'NONE',  #267 ) ;
#223 = DIRECTION ( 'NONE',  ( -3.491481338843133355E-15, 1.224646799147353207E-16, -1.000000000000000000 ) ) ;
#224 = PERSON_AND_ORGANIZATION ( #204, #162 ) ;
#225 = VERTEX_POINT ( 'NONE', #247 ) ;
#226 = EDGE_LOOP ( 'NONE', ( #249 ) ) ;
#227 = EDGE_CURVE ( 'NONE', #225, #225, #256, .T. ) ;
#228 = CLOSED_SHELL ( 'NONE', ( #156, #172, #215, #198, #192, #275, #260 ) ) ;
#229 = COORDINATED_UNIVERSAL_TIME_OFFSET ( 1, 0, .AHEAD. ) ;
#230 = VERTEX_POINT ( 'NONE', #54 ) ;
#231 = EDGE_LOOP ( 'NONE', ( #88 ) ) ;
#232 = CALENDAR_DATE ( 2021, 2, 12 ) ;
#233 = ORIENTED_EDGE ( 'NONE', *, *, #106, .T. ) ;
#234 = DATE_TIME_ROLE ( 'classification_date' ) ;
#235 = DIRECTION ( 'NONE',  ( -3.491481338843133355E-15, 1.224646799147353207E-16, -1.000000000000000000 ) ) ;
#236 = LOCAL_TIME ( 9, 36, 38.00000000000000000, #229 ) ;
#237 = APPROVAL ( #77, 'UNSPECIFIED' ) ;
#238 = APPLICATION_CONTEXT ( 'configuration controlled 3d designs of mechanical parts and assemblies' ) ;
#239 = FACE_OUTER_BOUND ( 'NONE', #126, .T. ) ;
#240 = PERSON_AND_ORGANIZATION_ROLE ( 'classification_officer' ) ;
#241 = DIRECTION ( 'NONE',  ( 3.491481338843133355E-15, -1.224646799147353207E-16, 1.000000000000000000 ) ) ;
#242 = DIRECTION ( 'NONE',  ( -4.275831445896958607E-31, -1.000000000000000000, -1.224646799147353207E-16 ) ) ;
#243 = FACE_OUTER_BOUND ( 'NONE', #214, .T. ) ;
#244 = FACE_OUTER_BOUND ( 'NONE', #40, .T. ) ;
#245 = CC_DESIGN_PERSON_AND_ORGANIZATION_ASSIGNMENT ( #183, #213, ( #34 ) ) ;
#246 = DIRECTION ( 'NONE',  ( -3.491481338843133355E-15, 1.224646799147353207E-16, -1.000000000000000000 ) ) ;
#247 = CARTESIAN_POINT ( 'NONE',  ( 7.235533139521181154E-14, 4.749999999999987566, 20.72339055353107184 ) ) ;
#248 = APPROVAL_ROLE ( '' ) ;
#249 = ORIENTED_EDGE ( 'NONE', *, *, #221, .F. ) ;
#250 = PERSON_AND_ORGANIZATION_ROLE ( 'design_owner' ) ;
#251 = EDGE_LOOP ( 'NONE', ( #125 ) ) ;
#252 = DATE_AND_TIME ( #141, #277 ) ;
#253 = MANIFOLD_SOLID_BREP ( 'Corps-Déplacer/Copier1[1]', #228 ) ;
#254 = PERSON_AND_ORGANIZATION ( #204, #162 ) ;
#255 = DIRECTION ( 'NONE',  ( -3.491481338843133355E-15, 1.224646799147353207E-16, -1.000000000000000000 ) ) ;
#256 = CIRCLE ( 'NONE', #38, 4.749999999999990230 ) ;
#257 = ORIENTED_EDGE ( 'NONE', *, *, #265, .T. ) ;
#258 = DATE_AND_TIME ( #232, #140 ) ;
#259 = ORIENTED_EDGE ( 'NONE', *, *, #28, .T. ) ;
#260 = ADVANCED_FACE ( 'NONE', ( #179 ), #222, .F. ) ;
#261 = CARTESIAN_POINT ( 'NONE',  ( -7.284849322664268942E-31, 2.555181179409529660E-32, -2.086463771585853485E-16 ) ) ;
#262 = APPROVAL_DATE_TIME ( #258, #100 ) ;
#263 = ORIENTED_EDGE ( 'NONE', *, *, #123, .F. ) ;
#264 = PLANE ( 'NONE',  #194 ) ;
#265 = EDGE_CURVE ( 'NONE', #120, #120, #184, .T. ) ;
#266 = DIRECTION ( 'NONE',  ( -3.491481338843133355E-15, 1.224646799147353207E-16, -1.000000000000000000 ) ) ;
#267 = AXIS2_PLACEMENT_3D ( 'NONE', #158, #53, #138 ) ;
#268 = CARTESIAN_POINT ( 'NONE',  ( -3.642424661332134471E-31, 1.277590589704764830E-32, -1.043231885792926743E-16 ) ) ;
#269 = AXIS2_PLACEMENT_3D ( 'NONE', #212, #18, #3 ) ;
#270 = CONICAL_SURFACE ( 'NONE', #12, 5.744999999999997442, 0.7853981633974430610 ) ;
#271 = DIRECTION ( 'NONE',  ( 4.275831445896958607E-31, 1.000000000000000000, 1.224646799147353207E-16 ) ) ;
#272 = ADVANCED_FACE ( 'NONE', ( #50 ), #264, .T. ) ;
#273 = DIRECTION ( 'NONE',  ( 3.491481338843133355E-15, -1.224646799147353207E-16, 1.000000000000000000 ) ) ;
#274 = CARTESIAN_POINT ( 'NONE',  ( 4.922988687768816390E-13, 5.999999999999984013, 140.9999999999999716 ) ) ;
#275 = ADVANCED_FACE ( 'NONE', ( #110, #112 ), #94, .T. ) ;
#276 = EDGE_LOOP ( 'NONE', ( #78 ) ) ;
#277 = LOCAL_TIME ( 9, 36, 38.00000000000000000, #32 ) ;
#278 = DATE_AND_TIME ( #13, #166 ) ;
#279 = APPROVAL_DATE_TIME ( #278, #237 ) ;
#280 = EDGE_CURVE ( 'NONE', #139, #139, #152, .T. ) ;
#281 = CALENDAR_DATE ( 2021, 2, 12 ) ;
#282 = LOCAL_TIME ( 9, 36, 38.00000000000000000, #83 ) ;
#283 = DIRECTION ( 'NONE',  ( 3.491481338843133355E-15, -1.224646799147353207E-16, 1.000000000000000000 ) ) ;
ENDSEC;
END-ISO-10303-21;
