ISO-10303-21;
HEADER;
FILE_DESCRIPTION (( 'STEP AP203' ),
    '1' );
FILE_NAME ('963740.step',
    '2021-12-02T08:36:38',
    ( '' ),
    ( '' ),
    'SwSTEP 2.0',
    'SolidWorks 2019',
    '' );
FILE_SCHEMA (( 'CONFIG_CONTROL_DESIGN' ));
ENDSEC;

DATA;
#1 = VERTEX_POINT ( 'NONE', #69 ) ;
#2 = EDGE_LOOP ( 'NONE', ( #162 ) ) ;
#3 = DIRECTION ( 'NONE',  ( 1.000000000000000000, 0.0000000000000000000, 0.0000000000000000000 ) ) ;
#4 = APPROVAL_STATUS ( 'not_yet_approved' ) ;
#5 = LOCAL_TIME ( 9, 36, 38.00000000000000000, #91 ) ;
#6 = EDGE_LOOP ( 'NONE', ( #85 ) ) ;
#7 = CLOSED_SHELL ( 'NONE', ( #200, #155, #51, #218 ) ) ;
#8 = DIRECTION ( 'NONE',  ( -3.491481338843133355E-15, 1.224646799147353207E-16, -1.000000000000000000 ) ) ;
#9 = DATE_AND_TIME ( #56, #267 ) ;
#10 = EDGE_CURVE ( 'NONE', #187, #187, #131, .T. ) ;
#11 = COORDINATED_UNIVERSAL_TIME_OFFSET ( 1, 0, .AHEAD. ) ;
#12 = SECURITY_CLASSIFICATION_LEVEL ( 'unclassified' ) ;
#13 = APPLICATION_CONTEXT ( 'configuration controlled 3d designs of mechanical parts and assemblies' ) ;
#14 = DIRECTION ( 'NONE',  ( -3.491481338843133355E-15, 1.224646799147353207E-16, -1.000000000000000000 ) ) ;
#15 = DIRECTION ( 'NONE',  ( 0.0000000000000000000, 1.000000000000000000, 0.0000000000000000000 ) ) ;
#16 = CLOSED_SHELL ( 'NONE', ( #265, #203, #36, #228, #41, #209, #135 ) ) ;
#17 = CONICAL_SURFACE ( 'NONE', #106, 5.000000000000000888, 0.7853981633974339571 ) ;
#18 = FACE_OUTER_BOUND ( 'NONE', #243, .T. ) ;
#19 = PRODUCT_DEFINITION_SHAPE ( 'NONE', 'NONE',  #215 ) ;
#20 = CARTESIAN_POINT ( 'NONE',  ( 0.0000000000000000000, 0.0000000000000000000, 0.0000000000000000000 ) ) ;
#21 = FACE_OUTER_BOUND ( 'NONE', #191, .T. ) ;
#22 = CIRCLE ( 'NONE', #57, 4.749999999999990230 ) ;
#23 = DIRECTION ( 'NONE',  ( 3.491481338843133355E-15, -1.224646799147353207E-16, 1.000000000000000000 ) ) ;
#24 = DIRECTION ( 'NONE',  ( 3.491481338843133355E-15, -1.224646799147353207E-16, 1.000000000000000000 ) ) ;
#25 = EDGE_LOOP ( 'NONE', ( #283 ) ) ;
#26 = DIRECTION ( 'NONE',  ( -4.275831445896958607E-31, -1.000000000000000000, -1.224646799147353207E-16 ) ) ;
#27 = DATE_AND_TIME ( #220, #224 ) ;
#28 = AXIS2_PLACEMENT_3D ( 'NONE', #45, #219, #3 ) ;
#29 = COORDINATED_UNIVERSAL_TIME_OFFSET ( 1, 0, .AHEAD. ) ;
#30 = EDGE_CURVE ( 'NONE', #104, #104, #22, .T. ) ;
#31 = COORDINATED_UNIVERSAL_TIME_OFFSET ( 1, 0, .AHEAD. ) ;
#32 = APPROVAL_STATUS ( 'not_yet_approved' ) ;
#33 = APPROVAL_DATE_TIME ( #27, #115 ) ;
#34 = ORIENTED_EDGE ( 'NONE', *, *, #269, .T. ) ;
#35 = FACE_BOUND ( 'NONE', #171, .T. ) ;
#36 = ADVANCED_FACE ( 'NONE', ( #141, #251 ), #226, .T. ) ;
#37 = APPROVAL_PERSON_ORGANIZATION ( #266, #127, #178 ) ;
#38 = DIRECTION ( 'NONE',  ( -3.491481338843133355E-15, 1.224646799147353207E-16, -1.000000000000000000 ) ) ;
#39 = CIRCLE ( 'NONE', #121, 5.999999999999994671 ) ;
#40 = DIRECTION ( 'NONE',  ( 0.0000000000000000000, 1.000000000000000000, 0.0000000000000000000 ) ) ;
#41 = ADVANCED_FACE ( 'NONE', ( #125, #142 ), #42, .T. ) ;
#42 = CYLINDRICAL_SURFACE ( 'NONE', #197, 5.999999999999998224 ) ;
#43 = DIRECTION ( 'NONE',  ( 3.491481338843133355E-15, -1.224646799147353207E-16, 1.000000000000000000 ) ) ;
#44 = AXIS2_PLACEMENT_3D ( 'NONE', #116, #204, #158 ) ;
#45 = CARTESIAN_POINT ( 'NONE',  ( 0.0000000000000000000, 0.0000000000000000000, 0.0000000000000000000 ) ) ;
#46 = ADVANCED_BREP_SHAPE_REPRESENTATION ( '963740', ( #70, #157, #28 ), #95 ) ;
#47 = CARTESIAN_POINT ( 'NONE',  ( -2.240535677650007858E-30, 7.858741261148138682E-32, -6.417149227532135332E-16 ) ) ;
#48 = APPROVAL_PERSON_ORGANIZATION ( #198, #113, #221 ) ;
#49 = AXIS2_PLACEMENT_3D ( 'NONE', #20, #98, #143 ) ;
#50 = VERTEX_POINT ( 'NONE', #192 ) ;
#51 = ADVANCED_FACE ( 'NONE', ( #63, #21 ), #119, .T. ) ;
#52 = PERSON_AND_ORGANIZATION_ROLE ( 'design_supplier' ) ;
#53 = AXIS2_PLACEMENT_3D ( 'NONE', #254, #139, #96 ) ;
#54 = PRODUCT_DEFINITION_FORMATION_WITH_SPECIFIED_SOURCE ( 'ANY', '', #250, .NOT_KNOWN. ) ;
#55 = ORIENTED_EDGE ( 'NONE', *, *, #159, .F. ) ;
#56 = CALENDAR_DATE ( 2021, 2, 12 ) ;
#57 = AXIS2_PLACEMENT_3D ( 'NONE', #58, #14, #94 ) ;
#58 = CARTESIAN_POINT ( 'NONE',  ( 7.232509427984904280E-14, -2.536822815647507639E-15, 20.71473029949322964 ) ) ;
#59 = CARTESIAN_POINT ( 'NONE',  ( 3.416555881846535738E-13, -1.198366486529116725E-14, 97.85404962177391042 ) ) ;
#60 = CARTESIAN_POINT ( 'NONE',  ( 0.0000000000000000000, 0.0000000000000000000, 0.0000000000000000000 ) ) ;
#61 = CARTESIAN_POINT ( 'NONE',  ( 4.922988687768816390E-13, -1.726751986797767482E-14, 140.9999999999999716 ) ) ;
#62 = EDGE_LOOP ( 'NONE', ( #118 ) ) ;
#63 = FACE_OUTER_BOUND ( 'NONE', #217, .T. ) ;
#64 = CARTESIAN_POINT ( 'NONE',  ( 6.633814543801952113E-14, -2.326828918379970970E-15, 19.00000000000000000 ) ) ;
#65 = VERTEX_POINT ( 'NONE', #84 ) ;
#66 = ORIENTED_EDGE ( 'NONE', *, *, #176, .T. ) ;
#67 = SECURITY_CLASSIFICATION ( '', '', #12 ) ;
#68 = DIRECTION ( 'NONE',  ( 4.275831445896958607E-31, 1.000000000000000000, 1.224646799147353207E-16 ) ) ;
#69 = CARTESIAN_POINT ( 'NONE',  ( 4.922988687768816390E-13, 5.999999999999984013, 140.9999999999999716 ) ) ;
#70 = MANIFOLD_SOLID_BREP ( 'Corps-Déplacer/Copier1[1]', #16 ) ;
#71 = DATE_AND_TIME ( #112, #5 ) ;
#72 = AXIS2_PLACEMENT_3D ( 'NONE', #61, #279, #124 ) ;
#73 = CC_DESIGN_DATE_AND_TIME_ASSIGNMENT ( #9, #175, ( #67 ) ) ;
#74 = DIRECTION ( 'NONE',  ( -3.491481338843133355E-15, 1.224646799147353207E-16, -1.000000000000000000 ) ) ;
#75 = FACE_BOUND ( 'NONE', #169, .T. ) ;
#76 = AXIS2_PLACEMENT_3D ( 'NONE', #272, #276, #252 ) ;
#77 = DIRECTION ( 'NONE',  ( 0.0000000000000000000, 1.000000000000000000, 0.0000000000000000000 ) ) ;
#78 = ORIENTED_EDGE ( 'NONE', *, *, #274, .T. ) ;
#79 = FACE_OUTER_BOUND ( 'NONE', #257, .T. ) ;
#80 = VERTEX_POINT ( 'NONE', #148 ) ;
#81 = AXIS2_PLACEMENT_3D ( 'NONE', #64, #256, #184 ) ;
#82 = AXIS2_PLACEMENT_3D ( 'NONE', #149, #111, #170 ) ;
#83 = EDGE_LOOP ( 'NONE', ( #66 ) ) ;
#84 = CARTESIAN_POINT ( 'NONE',  ( 3.351822085289408021E-13, 4.749999999999989342, 96.00000000000000000 ) ) ;
#85 = ORIENTED_EDGE ( 'NONE', *, *, #274, .F. ) ;
#86 = APPLICATION_PROTOCOL_DEFINITION ( 'international standard', 'config_control_design', 1994, #237 ) ;
#87 = CC_DESIGN_APPROVAL ( #127, ( #67 ) ) ;
#88 = EDGE_LOOP ( 'NONE', ( #78 ) ) ;
#89 = APPLICATION_PROTOCOL_DEFINITION ( 'international standard', 'config_control_design', 1994, #13 ) ;
#90 = CALENDAR_DATE ( 2021, 2, 12 ) ;
#91 = COORDINATED_UNIVERSAL_TIME_OFFSET ( 1, 0, .AHEAD. ) ;
#92 = PERSON_AND_ORGANIZATION_ROLE ( 'creator' ) ;
#93 = CC_DESIGN_APPROVAL ( #113, ( #54 ) ) ;
#94 = DIRECTION ( 'NONE',  ( 0.0000000000000000000, 1.000000000000000000, 0.0000000000000000000 ) ) ;
#95 =( GEOMETRIC_REPRESENTATION_CONTEXT ( 3 ) GLOBAL_UNCERTAINTY_ASSIGNED_CONTEXT ( ( #236 ) ) GLOBAL_UNIT_ASSIGNED_CONTEXT ( ( #260, #147, #244 ) ) REPRESENTATION_CONTEXT ( 'NONE', 'WORKASPACE' ) );
#96 = DIRECTION ( 'NONE',  ( 4.275831445896958607E-31, 1.000000000000000000, 1.224646799147353207E-16 ) ) ;
#97 = CARTESIAN_POINT ( 'NONE',  ( -1.120267838825003929E-30, 3.929370630574069341E-32, -3.208574613766067666E-16 ) ) ;
#98 = DIRECTION ( 'NONE',  ( -3.491481338843133355E-15, 1.224646799147353207E-16, -1.000000000000000000 ) ) ;
#99 = DIRECTION ( 'NONE',  ( 4.275831445896958607E-31, 1.000000000000000000, 1.224646799147353207E-16 ) ) ;
#100 = FACE_OUTER_BOUND ( 'NONE', #62, .T. ) ;
#101 = EDGE_LOOP ( 'NONE', ( #109 ) ) ;
#102 = VERTEX_POINT ( 'NONE', #189 ) ;
#103 = CC_DESIGN_APPROVAL ( #115, ( #215 ) ) ;
#104 = VERTEX_POINT ( 'NONE', #151 ) ;
#105 = CIRCLE ( 'NONE', #76, 5.739999999999997549 ) ;
#106 = AXIS2_PLACEMENT_3D ( 'NONE', #160, #161, #40 ) ;
#107 = ORIENTED_EDGE ( 'NONE', *, *, #30, .F. ) ;
#108 = CC_DESIGN_PERSON_AND_ORGANIZATION_ASSIGNMENT ( #154, #92, ( #215 ) ) ;
#109 = ORIENTED_EDGE ( 'NONE', *, *, #164, .F. ) ;
#110 = MECHANICAL_CONTEXT ( 'NONE', #237, 'mechanical' ) ;
#111 = DIRECTION ( 'NONE',  ( -3.491481338843133355E-15, 1.224646799147353207E-16, -1.000000000000000000 ) ) ;
#112 = CALENDAR_DATE ( 2021, 2, 12 ) ;
#113 = APPROVAL ( #270, 'UNSPECIFIED' ) ;
#114 = DATE_AND_TIME ( #90, #271 ) ;
#115 = APPROVAL ( #4, 'UNSPECIFIED' ) ;
#116 = CARTESIAN_POINT ( 'NONE',  ( 6.633814543801952113E-14, -2.326828918379970970E-15, 19.00000000000000000 ) ) ;
#117 = PERSON ( 'UNSPECIFIED', 'UNSPECIFIED', 'UNSPECIFIED', ('UNSPECIFIED'), ('UNSPECIFIED'), ('UNSPECIFIED') ) ;
#118 = ORIENTED_EDGE ( 'NONE', *, *, #10, .F. ) ;
#119 = CYLINDRICAL_SURFACE ( 'NONE', #49, 5.739999999999998437 ) ;
#120 = AXIS2_PLACEMENT_3D ( 'NONE', #227, #183, #277 ) ;
#121 = AXIS2_PLACEMENT_3D ( 'NONE', #59, #181, #130 ) ;
#122 = FACE_OUTER_BOUND ( 'NONE', #101, .T. ) ;
#123 = DIRECTION ( 'NONE',  ( 4.275831445896958607E-31, 1.000000000000000000, 1.224646799147353207E-16 ) ) ;
#124 = DIRECTION ( 'NONE',  ( 0.0000000000000000000, 1.000000000000000000, 0.0000000000000000000 ) ) ;
#125 = FACE_OUTER_BOUND ( 'NONE', #128, .T. ) ;
#126 = CARTESIAN_POINT ( 'NONE',  ( 0.0000000000000000000, 0.0000000000000000000, 0.0000000000000000000 ) ) ;
#127 = APPROVAL ( #32, 'UNSPECIFIED' ) ;
#128 = EDGE_LOOP ( 'NONE', ( #262 ) ) ;
#129 = COORDINATED_UNIVERSAL_TIME_OFFSET ( 1, 0, .AHEAD. ) ;
#130 = DIRECTION ( 'NONE',  ( 0.0000000000000000000, 1.000000000000000000, 0.0000000000000000000 ) ) ;
#131 = CIRCLE ( 'NONE', #44, 5.740000000000000213 ) ;
#132 = CARTESIAN_POINT ( 'NONE',  ( 4.957903501157248607E-13, 4.999999999999984013, 142.0000000000000000 ) ) ;
#133 = PERSON_AND_ORGANIZATION ( #117, #258 ) ;
#134 = PERSON_AND_ORGANIZATION_ROLE ( 'classification_officer' ) ;
#135 = ADVANCED_FACE ( 'NONE', ( #122 ), #225, .F. ) ;
#136 = ORIENTED_EDGE ( 'NONE', *, *, #164, .T. ) ;
#137 = PERSON_AND_ORGANIZATION ( #117, #258 ) ;
#138 = CALENDAR_DATE ( 2021, 2, 12 ) ;
#139 = DIRECTION ( 'NONE',  ( -3.491481338843133355E-15, 1.224646799147353207E-16, -1.000000000000000000 ) ) ;
#140 = FACE_BOUND ( 'NONE', #25, .T. ) ;
#141 = FACE_OUTER_BOUND ( 'NONE', #273, .T. ) ;
#142 = FACE_OUTER_BOUND ( 'NONE', #199, .T. ) ;
#143 = DIRECTION ( 'NONE',  ( 4.275831445896958607E-31, 1.000000000000000000, 1.224646799147353207E-16 ) ) ;
#144 = ORIENTED_EDGE ( 'NONE', *, *, #176, .F. ) ;
#145 = PERSON_AND_ORGANIZATION_ROLE ( 'design_owner' ) ;
#146 = TOROIDAL_SURFACE ( 'NONE', #53, 6.750000000000001776, 1.999999999999997113 ) ;
#147 =( NAMED_UNIT ( * ) PLANE_ANGLE_UNIT ( ) SI_UNIT ( $, .RADIAN. ) );
#148 = CARTESIAN_POINT ( 'NONE',  ( 3.416555881846535738E-13, 5.999999999999983125, 97.85404962177391042 ) ) ;
#149 = CARTESIAN_POINT ( 'NONE',  ( 3.351822085289408021E-13, -1.175660927181459158E-14, 96.00000000000000000 ) ) ;
#150 = ORIENTED_EDGE ( 'NONE', *, *, #223, .T. ) ;
#151 = CARTESIAN_POINT ( 'NONE',  ( 7.232509427984904280E-14, 4.749999999999987566, 20.71473029949322964 ) ) ;
#152 = EDGE_LOOP ( 'NONE', ( #34 ) ) ;
#153 = AXIS2_PLACEMENT_3D ( 'NONE', #47, #8, #68 ) ;
#154 = PERSON_AND_ORGANIZATION ( #117, #258 ) ;
#155 = ADVANCED_FACE ( 'NONE', ( #140, #234 ), #246, .T. ) ;
#156 = PERSON_AND_ORGANIZATION_ROLE ( 'creator' ) ;
#157 = MANIFOLD_SOLID_BREP ( 'Corps-Déplacer/Copier1[2]', #7 ) ;
#158 = DIRECTION ( 'NONE',  ( 0.0000000000000000000, 1.000000000000000000, 0.0000000000000000000 ) ) ;
#159 = EDGE_CURVE ( 'NONE', #102, #102, #281, .T. ) ;
#160 = CARTESIAN_POINT ( 'NONE',  ( 4.957903501157248607E-13, -1.738998454789241313E-14, 142.0000000000000000 ) ) ;
#161 = DIRECTION ( 'NONE',  ( -3.491481338843133355E-15, 1.224646799147353207E-16, -1.000000000000000000 ) ) ;
#162 = ORIENTED_EDGE ( 'NONE', *, *, #261, .T. ) ;
#163 = PLANE ( 'NONE',  #259 ) ;
#164 = EDGE_CURVE ( 'NONE', #264, #264, #229, .T. ) ;
#165 = DESIGN_CONTEXT ( 'detailed design', #13, 'design' ) ;
#166 = PLANE ( 'NONE',  #180 ) ;
#167 = APPROVAL_PERSON_ORGANIZATION ( #194, #115, #173 ) ;
#168 = AXIS2_PLACEMENT_3D ( 'NONE', #231, #74, #77 ) ;
#169 = EDGE_LOOP ( 'NONE', ( #136 ) ) ;
#170 = DIRECTION ( 'NONE',  ( 0.0000000000000000000, 1.000000000000000000, 0.0000000000000000000 ) ) ;
#171 = EDGE_LOOP ( 'NONE', ( #185 ) ) ;
#172 = ORIENTED_EDGE ( 'NONE', *, *, #10, .T. ) ;
#173 = APPROVAL_ROLE ( '' ) ;
#174 = CC_DESIGN_PERSON_AND_ORGANIZATION_ASSIGNMENT ( #137, #134, ( #67 ) ) ;
#175 = DATE_TIME_ROLE ( 'classification_date' ) ;
#176 = EDGE_CURVE ( 'NONE', #50, #50, #105, .T. ) ;
#177 = PERSON_AND_ORGANIZATION ( #117, #258 ) ;
#178 = APPROVAL_ROLE ( '' ) ;
#179 = APPROVAL_DATE_TIME ( #247, #127 ) ;
#180 = AXIS2_PLACEMENT_3D ( 'NONE', #253, #43, #186 ) ;
#181 = DIRECTION ( 'NONE',  ( -3.491481338843133355E-15, 1.224646799147353207E-16, -1.000000000000000000 ) ) ;
#182 = DIRECTION ( 'NONE',  ( -3.491481338843133355E-15, 1.224646799147353207E-16, -1.000000000000000000 ) ) ;
#183 = DIRECTION ( 'NONE',  ( 3.491481338843133355E-15, -1.224646799147353207E-16, 1.000000000000000000 ) ) ;
#184 = DIRECTION ( 'NONE',  ( 0.0000000000000000000, 1.000000000000000000, 0.0000000000000000000 ) ) ;
#185 = ORIENTED_EDGE ( 'NONE', *, *, #30, .T. ) ;
#186 = DIRECTION ( 'NONE',  ( -4.275831445896958607E-31, -1.000000000000000000, -1.224646799147353207E-16 ) ) ;
#187 = VERTEX_POINT ( 'NONE', #242 ) ;
#188 = EDGE_LOOP ( 'NONE', ( #193 ) ) ;
#189 = CARTESIAN_POINT ( 'NONE',  ( 6.633814543801952113E-14, 5.739999999999997549, 19.00000000000000000 ) ) ;
#190 = CONICAL_SURFACE ( 'NONE', #168, 4.749999999999990230, 0.5235987755982928205 ) ;
#191 = EDGE_LOOP ( 'NONE', ( #172 ) ) ;
#192 = CARTESIAN_POINT ( 'NONE',  ( 1.745740669421566678E-15, 5.739999999999997549, 0.5000000000000000000 ) ) ;
#193 = ORIENTED_EDGE ( 'NONE', *, *, #159, .T. ) ;
#194 = PERSON_AND_ORGANIZATION ( #117, #258 ) ;
#195 = CC_DESIGN_DATE_AND_TIME_ASSIGNMENT ( #114, #245, ( #215 ) ) ;
#196 = FACE_OUTER_BOUND ( 'NONE', #188, .T. ) ;
#197 = AXIS2_PLACEMENT_3D ( 'NONE', #126, #255, #235 ) ;
#198 = PERSON_AND_ORGANIZATION ( #117, #258 ) ;
#199 = EDGE_LOOP ( 'NONE', ( #150 ) ) ;
#200 = ADVANCED_FACE ( 'NONE', ( #239 ), #163, .F. ) ;
#201 = AXIS2_PLACEMENT_3D ( 'NONE', #213, #182, #15 ) ;
#202 = PERSON_AND_ORGANIZATION ( #117, #258 ) ;
#203 = ADVANCED_FACE ( 'NONE', ( #18, #35 ), #190, .T. ) ;
#204 = DIRECTION ( 'NONE',  ( -3.491481338843133355E-15, 1.224646799147353207E-16, -1.000000000000000000 ) ) ;
#205 = FACE_OUTER_BOUND ( 'NONE', #6, .T. ) ;
#206 = AXIS2_PLACEMENT_3D ( 'NONE', #212, #208, #99 ) ;
#207 = AXIS2_PLACEMENT_3D ( 'NONE', #216, #24, #26 ) ;
#208 = DIRECTION ( 'NONE',  ( -3.491481338843133355E-15, 1.224646799147353207E-16, -1.000000000000000000 ) ) ;
#209 = ADVANCED_FACE ( 'NONE', ( #79, #75 ), #17, .T. ) ;
#210 = FACE_OUTER_BOUND ( 'NONE', #2, .T. ) ;
#211 = LOCAL_TIME ( 9, 36, 38.00000000000000000, #29 ) ;
#212 = CARTESIAN_POINT ( 'NONE',  ( 4.957903501157248607E-13, 3.749399456654618840E-32, 142.0000000000000000 ) ) ;
#213 = CARTESIAN_POINT ( 'NONE',  ( 4.957903501157248607E-13, -1.738998454789241313E-14, 142.0000000000000000 ) ) ;
#214 = VERTEX_POINT ( 'NONE', #240 ) ;
#215 = PRODUCT_DEFINITION ( 'UNKNOWN', '', #54, #165 ) ;
#216 = CARTESIAN_POINT ( 'NONE',  ( 6.633814543801952113E-14, 4.304310576239527722E-32, 19.00000000000000000 ) ) ;
#217 = EDGE_LOOP ( 'NONE', ( #144 ) ) ;
#218 = ADVANCED_FACE ( 'NONE', ( #100 ), #166, .T. ) ;
#219 = DIRECTION ( 'NONE',  ( 0.0000000000000000000, 0.0000000000000000000, 1.000000000000000000 ) ) ;
#220 = CALENDAR_DATE ( 2021, 2, 12 ) ;
#221 = APPROVAL_ROLE ( '' ) ;
#222 = SHAPE_DEFINITION_REPRESENTATION ( #19, #46 ) ;
#223 = EDGE_CURVE ( 'NONE', #1, #1, #282, .T. ) ;
#224 = LOCAL_TIME ( 9, 36, 38.00000000000000000, #129 ) ;
#225 = PLANE ( 'NONE',  #206 ) ;
#226 = CYLINDRICAL_SURFACE ( 'NONE', #263, 4.749999999999995559 ) ;
#227 = CARTESIAN_POINT ( 'NONE',  ( 1.745740669421564508E-15, -6.123233995736758640E-17, 0.4999999999999993339 ) ) ;
#228 = ADVANCED_FACE ( 'NONE', ( #205, #210 ), #146, .F. ) ;
#229 = CIRCLE ( 'NONE', #201, 5.000000000000000888 ) ;
#230 = CIRCLE ( 'NONE', #153, 5.240000000000003766 ) ;
#231 = CARTESIAN_POINT ( 'NONE',  ( 7.232509427984904280E-14, -2.536822815647507639E-15, 20.71473029949322964 ) ) ;
#232 = PRODUCT_RELATED_PRODUCT_CATEGORY ( 'detail', '', ( #250 ) ) ;
#233 = ORIENTED_EDGE ( 'NONE', *, *, #223, .F. ) ;
#234 = FACE_OUTER_BOUND ( 'NONE', #83, .T. ) ;
#235 = DIRECTION ( 'NONE',  ( 4.275831445896958607E-31, 1.000000000000000000, 1.224646799147353207E-16 ) ) ;
#236 = UNCERTAINTY_MEASURE_WITH_UNIT (LENGTH_MEASURE( 1.000000000000000082E-05 ), #260, 'distance_accuracy_value', 'NONE');
#237 = APPLICATION_CONTEXT ( 'configuration controlled 3d designs of mechanical parts and assemblies' ) ;
#238 = CC_DESIGN_SECURITY_CLASSIFICATION ( #67, ( #54 ) ) ;
#239 = FACE_OUTER_BOUND ( 'NONE', #152, .T. ) ;
#240 = CARTESIAN_POINT ( 'NONE',  ( 0.0000000000000000000, 5.240000000000003766, 0.0000000000000000000 ) ) ;
#241 = CC_DESIGN_PERSON_AND_ORGANIZATION_ASSIGNMENT ( #202, #156, ( #54 ) ) ;
#242 = CARTESIAN_POINT ( 'NONE',  ( 6.633814543801952113E-14, 5.739999999999997549, 19.00000000000000000 ) ) ;
#243 = EDGE_LOOP ( 'NONE', ( #55 ) ) ;
#244 =( NAMED_UNIT ( * ) SI_UNIT ( $, .STERADIAN. ) SOLID_ANGLE_UNIT ( ) );
#245 = DATE_TIME_ROLE ( 'creation_date' ) ;
#246 = CONICAL_SURFACE ( 'NONE', #120, 5.739999999999997549, 0.7853981633974426169 ) ;
#247 = DATE_AND_TIME ( #138, #211 ) ;
#248 = APPROVAL_DATE_TIME ( #71, #113 ) ;
#249 = CC_DESIGN_PERSON_AND_ORGANIZATION_ASSIGNMENT ( #133, #145, ( #250 ) ) ;
#250 = PRODUCT ( '963740', '963740', '', ( #110 ) ) ;
#251 = FACE_OUTER_BOUND ( 'NONE', #88, .T. ) ;
#252 = DIRECTION ( 'NONE',  ( 4.026334378509902828E-31, 1.000000000000000000, 1.133312375420388498E-16 ) ) ;
#253 = CARTESIAN_POINT ( 'NONE',  ( 6.633814543801952113E-14, 4.304310576239527722E-32, 19.00000000000000000 ) ) ;
#254 = CARTESIAN_POINT ( 'NONE',  ( 3.351822085289408021E-13, -1.214306433183764966E-14, 96.00000000000000000 ) ) ;
#255 = DIRECTION ( 'NONE',  ( -3.491481338843133355E-15, 1.224646799147353207E-16, -1.000000000000000000 ) ) ;
#256 = DIRECTION ( 'NONE',  ( -3.491481338843133355E-15, 1.224646799147353207E-16, -1.000000000000000000 ) ) ;
#257 = EDGE_LOOP ( 'NONE', ( #233 ) ) ;
#258 = ORGANIZATION ( 'UNSPECIFIED', 'UNSPECIFIED', '' ) ;
#259 = AXIS2_PLACEMENT_3D ( 'NONE', #97, #23, #275 ) ;
#260 =( LENGTH_UNIT ( ) NAMED_UNIT ( * ) SI_UNIT ( .MILLI., .METRE. ) );
#261 = EDGE_CURVE ( 'NONE', #80, #80, #39, .T. ) ;
#262 = ORIENTED_EDGE ( 'NONE', *, *, #261, .F. ) ;
#263 = AXIS2_PLACEMENT_3D ( 'NONE', #60, #38, #123 ) ;
#264 = VERTEX_POINT ( 'NONE', #132 ) ;
#265 = ADVANCED_FACE ( 'NONE', ( #196 ), #280, .F. ) ;
#266 = PERSON_AND_ORGANIZATION ( #117, #258 ) ;
#267 = LOCAL_TIME ( 9, 36, 38.00000000000000000, #11 ) ;
#268 = CIRCLE ( 'NONE', #82, 4.750000000000001776 ) ;
#269 = EDGE_CURVE ( 'NONE', #214, #214, #230, .T. ) ;
#270 = APPROVAL_STATUS ( 'not_yet_approved' ) ;
#271 = LOCAL_TIME ( 9, 36, 38.00000000000000000, #31 ) ;
#272 = CARTESIAN_POINT ( 'NONE',  ( 1.745740669421564508E-15, -6.123233995736758640E-17, 0.4999999999999993339 ) ) ;
#273 = EDGE_LOOP ( 'NONE', ( #107 ) ) ;
#274 = EDGE_CURVE ( 'NONE', #65, #65, #268, .T. ) ;
#275 = DIRECTION ( 'NONE',  ( -4.275831445896958607E-31, -1.000000000000000000, -1.224646799147353207E-16 ) ) ;
#276 = DIRECTION ( 'NONE',  ( -3.491481338843133355E-15, 1.224646799147353207E-16, -1.000000000000000000 ) ) ;
#277 = DIRECTION ( 'NONE',  ( -4.026334378509902828E-31, -1.000000000000000000, -1.133312375420388498E-16 ) ) ;
#278 = CC_DESIGN_PERSON_AND_ORGANIZATION_ASSIGNMENT ( #177, #52, ( #54 ) ) ;
#279 = DIRECTION ( 'NONE',  ( -3.491481338843133355E-15, 1.224646799147353207E-16, -1.000000000000000000 ) ) ;
#280 = PLANE ( 'NONE',  #207 ) ;
#281 = CIRCLE ( 'NONE', #81, 5.740000000000000213 ) ;
#282 = CIRCLE ( 'NONE', #72, 6.000000000000000888 ) ;
#283 = ORIENTED_EDGE ( 'NONE', *, *, #269, .F. ) ;
ENDSEC;
END-ISO-10303-21;
