ISO-10303-21;
HEADER;
FILE_DESCRIPTION (( 'STEP AP203' ),
    '1' );
FILE_NAME ('963739.step',
    '2021-12-02T08:36:37',
    ( '' ),
    ( '' ),
    'SwSTEP 2.0',
    'SolidWorks 2019',
    '' );
FILE_SCHEMA (( 'CONFIG_CONTROL_DESIGN' ));
ENDSEC;

DATA;
#1 = CALENDAR_DATE ( 2021, 2, 12 ) ;
#2 = CALENDAR_DATE ( 2021, 2, 12 ) ;
#3 = ORIENTED_EDGE ( 'NONE', *, *, #39, .F. ) ;
#4 = ADVANCED_FACE ( 'NONE', ( #80 ), #166, .F. ) ;
#5 = DIRECTION ( 'NONE',  ( -3.491481338843133355E-15, 1.224646799147353207E-16, -1.000000000000000000 ) ) ;
#6 = VERTEX_POINT ( 'NONE', #158 ) ;
#7 = DIRECTION ( 'NONE',  ( 4.275831445896958607E-31, 1.000000000000000000, 1.224646799147353207E-16 ) ) ;
#8 = ADVANCED_FACE ( 'NONE', ( #221, #272 ), #143, .T. ) ;
#9 = CONICAL_SURFACE ( 'NONE', #36, 5.000000000000000888, 0.7853981633974339571 ) ;
#10 = VERTEX_POINT ( 'NONE', #271 ) ;
#11 = DIRECTION ( 'NONE',  ( -3.491481338843133355E-15, 1.224646799147353207E-16, -1.000000000000000000 ) ) ;
#12 = DIRECTION ( 'NONE',  ( 4.275831445896958607E-31, 1.000000000000000000, 1.224646799147353207E-16 ) ) ;
#13 = CARTESIAN_POINT ( 'NONE',  ( 3.416555881846535738E-13, -1.198366486529116725E-14, 97.85404962177391042 ) ) ;
#14 = CIRCLE ( 'NONE', #279, 5.010000000000004228 ) ;
#15 = COORDINATED_UNIVERSAL_TIME_OFFSET ( 1, 0, .AHEAD. ) ;
#16 = DIRECTION ( 'NONE',  ( 0.0000000000000000000, 1.000000000000000000, 0.0000000000000000000 ) ) ;
#17 = PRODUCT ( '963739', '963739', '', ( #245 ) ) ;
#18 = CONICAL_SURFACE ( 'NONE', #25, 4.749999999999990230, 0.5235987755982927094 ) ;
#19 = CYLINDRICAL_SURFACE ( 'NONE', #53, 4.749999999999995559 ) ;
#20 = DATE_AND_TIME ( #260, #250 ) ;
#21 = ORIENTED_EDGE ( 'NONE', *, *, #268, .F. ) ;
#22 = ADVANCED_FACE ( 'NONE', ( #94, #165 ), #9, .T. ) ;
#23 = PLANE ( 'NONE',  #170 ) ;
#24 = ORIENTED_EDGE ( 'NONE', *, *, #265, .F. ) ;
#25 = AXIS2_PLACEMENT_3D ( 'NONE', #119, #104, #147 ) ;
#26 = DIRECTION ( 'NONE',  ( 0.0000000000000000000, 1.000000000000000000, 0.0000000000000000000 ) ) ;
#27 = PERSON_AND_ORGANIZATION ( #199, #189 ) ;
#28 = EDGE_CURVE ( 'NONE', #57, #57, #31, .T. ) ;
#29 = CARTESIAN_POINT ( 'NONE',  ( 0.0000000000000000000, 0.0000000000000000000, 0.0000000000000000000 ) ) ;
#30 = FACE_OUTER_BOUND ( 'NONE', #81, .T. ) ;
#31 = CIRCLE ( 'NONE', #197, 4.749999999999990230 ) ;
#32 = ADVANCED_FACE ( 'NONE', ( #230, #209 ), #125, .T. ) ;
#33 = ADVANCED_BREP_SHAPE_REPRESENTATION ( '963739', ( #64, #67, #164 ), #267 ) ;
#34 = APPROVAL ( #41, 'UNSPECIFIED' ) ;
#35 = EDGE_LOOP ( 'NONE', ( #162 ) ) ;
#36 = AXIS2_PLACEMENT_3D ( 'NONE', #187, #270, #249 ) ;
#37 = CARTESIAN_POINT ( 'NONE',  ( 1.745740669421566678E-15, 5.509999999999997122, 0.5000000000000000000 ) ) ;
#38 = ORIENTED_EDGE ( 'NONE', *, *, #51, .F. ) ;
#39 = EDGE_CURVE ( 'NONE', #161, #161, #149, .T. ) ;
#40 = PRODUCT_DEFINITION ( 'UNKNOWN', '', #69, #153 ) ;
#41 = APPROVAL_STATUS ( 'not_yet_approved' ) ;
#42 = FACE_OUTER_BOUND ( 'NONE', #91, .T. ) ;
#43 = PERSON_AND_ORGANIZATION ( #199, #189 ) ;
#44 = CC_DESIGN_PERSON_AND_ORGANIZATION_ASSIGNMENT ( #27, #282, ( #69 ) ) ;
#45 = LOCAL_TIME ( 9, 36, 37.00000000000000000, #15 ) ;
#46 = DIRECTION ( 'NONE',  ( -3.491481338843133355E-15, 1.224646799147353207E-16, -1.000000000000000000 ) ) ;
#47 = ORIENTED_EDGE ( 'NONE', *, *, #117, .T. ) ;
#48 = ORIENTED_EDGE ( 'NONE', *, *, #174, .F. ) ;
#49 = DIRECTION ( 'NONE',  ( 0.0000000000000000000, 1.000000000000000000, 0.0000000000000000000 ) ) ;
#50 = APPROVAL_DATE_TIME ( #20, #257 ) ;
#51 = EDGE_CURVE ( 'NONE', #77, #77, #108, .T. ) ;
#52 = DIRECTION ( 'NONE',  ( -3.491481338843133355E-15, 1.224646799147353207E-16, -1.000000000000000000 ) ) ;
#53 = AXIS2_PLACEMENT_3D ( 'NONE', #87, #46, #131 ) ;
#54 = CARTESIAN_POINT ( 'NONE',  ( 7.093418697316139081E-14, 4.749999999999987566, 20.31635861375238150 ) ) ;
#55 = CARTESIAN_POINT ( 'NONE',  ( 3.416555881846535738E-13, 5.999999999999983125, 97.85404962177391042 ) ) ;
#56 = EDGE_LOOP ( 'NONE', ( #3 ) ) ;
#57 = VERTEX_POINT ( 'NONE', #54 ) ;
#58 = CARTESIAN_POINT ( 'NONE',  ( 7.093418697316139081E-14, -2.488036354666161521E-15, 20.31635861375238150 ) ) ;
#59 = AXIS2_PLACEMENT_3D ( 'NONE', #71, #181, #263 ) ;
#60 = DIRECTION ( 'NONE',  ( -3.491481338843133355E-15, 1.224646799147353207E-16, -1.000000000000000000 ) ) ;
#61 = ADVANCED_FACE ( 'NONE', ( #202, #115 ), #78, .T. ) ;
#62 = SECURITY_CLASSIFICATION ( '', '', #178 ) ;
#63 = COORDINATED_UNIVERSAL_TIME_OFFSET ( 1, 0, .AHEAD. ) ;
#64 = MANIFOLD_SOLID_BREP ( 'Corps-Déplacer/Copier1[1]', #116 ) ;
#65 = COORDINATED_UNIVERSAL_TIME_OFFSET ( 1, 0, .AHEAD. ) ;
#66 = PERSON_AND_ORGANIZATION_ROLE ( 'creator' ) ;
#67 = MANIFOLD_SOLID_BREP ( 'Corps-Déplacer/Copier1[2]', #234 ) ;
#68 = DIRECTION ( 'NONE',  ( -3.491481338843133355E-15, 1.224646799147353207E-16, -1.000000000000000000 ) ) ;
#69 = PRODUCT_DEFINITION_FORMATION_WITH_SPECIFIED_SOURCE ( 'ANY', '', #17, .NOT_KNOWN. ) ;
#70 = CARTESIAN_POINT ( 'NONE',  ( -3.140014466439243687E-31, 1.101368815241997190E-32, -8.993358868931132443E-17 ) ) ;
#71 = CARTESIAN_POINT ( 'NONE',  ( 3.351822085289408021E-13, -1.214306433183764966E-14, 96.00000000000000000 ) ) ;
#72 = ORIENTED_EDGE ( 'NONE', *, *, #117, .F. ) ;
#73 = AXIS2_PLACEMENT_3D ( 'NONE', #29, #11, #198 ) ;
#74 = DIRECTION ( 'NONE',  ( -4.194402782694526971E-31, -1.000000000000000000, -1.180619425574052698E-16 ) ) ;
#75 = DATE_AND_TIME ( #1, #151 ) ;
#76 = CARTESIAN_POINT ( 'NONE',  ( 1.514188661106529260E-30, 5.010000000000004228, 4.336808689942017736E-16 ) ) ;
#77 = VERTEX_POINT ( 'NONE', #144 ) ;
#78 = CONICAL_SURFACE ( 'NONE', #222, 5.509999999999997122, 0.7853981633974422838 ) ;
#79 =( NAMED_UNIT ( * ) PLANE_ANGLE_UNIT ( ) SI_UNIT ( $, .RADIAN. ) );
#80 = FACE_OUTER_BOUND ( 'NONE', #123, .T. ) ;
#81 = EDGE_LOOP ( 'NONE', ( #111 ) ) ;
#82 = CARTESIAN_POINT ( 'NONE',  ( 0.0000000000000000000, 0.0000000000000000000, 0.0000000000000000000 ) ) ;
#83 = CIRCLE ( 'NONE', #107, 5.509999999999999787 ) ;
#84 = PRODUCT_DEFINITION_SHAPE ( 'NONE', 'NONE',  #40 ) ;
#85 = EDGE_LOOP ( 'NONE', ( #48 ) ) ;
#86 = DATE_AND_TIME ( #278, #45 ) ;
#87 = CARTESIAN_POINT ( 'NONE',  ( 0.0000000000000000000, 0.0000000000000000000, 0.0000000000000000000 ) ) ;
#88 = APPROVAL_STATUS ( 'not_yet_approved' ) ;
#89 = EDGE_LOOP ( 'NONE', ( #24 ) ) ;
#90 = PERSON_AND_ORGANIZATION_ROLE ( 'classification_officer' ) ;
#91 = EDGE_LOOP ( 'NONE', ( #139 ) ) ;
#92 = AXIS2_PLACEMENT_3D ( 'NONE', #106, #276, #49 ) ;
#93 = CARTESIAN_POINT ( 'NONE',  ( 4.957903501157248607E-13, 3.749399456654618840E-32, 142.0000000000000000 ) ) ;
#94 = FACE_OUTER_BOUND ( 'NONE', #138, .T. ) ;
#95 = AXIS2_PLACEMENT_3D ( 'NONE', #102, #157, #208 ) ;
#96 = DIRECTION ( 'NONE',  ( -4.275831445896958607E-31, -1.000000000000000000, -1.224646799147353207E-16 ) ) ;
#97 = VERTEX_POINT ( 'NONE', #76 ) ;
#98 =( LENGTH_UNIT ( ) NAMED_UNIT ( * ) SI_UNIT ( .MILLI., .METRE. ) );
#99 = FACE_OUTER_BOUND ( 'NONE', #89, .T. ) ;
#100 = APPROVAL_PERSON_ORGANIZATION ( #213, #167, #252 ) ;
#101 = DIRECTION ( 'NONE',  ( 0.0000000000000000000, 1.000000000000000000, 0.0000000000000000000 ) ) ;
#102 = CARTESIAN_POINT ( 'NONE',  ( 1.745740669421564508E-15, -6.123233995736758640E-17, 0.4999999999999993339 ) ) ;
#103 = EDGE_LOOP ( 'NONE', ( #109 ) ) ;
#104 = DIRECTION ( 'NONE',  ( -3.491481338843133355E-15, 1.224646799147353207E-16, -1.000000000000000000 ) ) ;
#105 = ORIENTED_EDGE ( 'NONE', *, *, #268, .T. ) ;
#106 = CARTESIAN_POINT ( 'NONE',  ( 4.922988687768816390E-13, -1.726751986797767482E-14, 140.9999999999999716 ) ) ;
#107 = AXIS2_PLACEMENT_3D ( 'NONE', #155, #52, #185 ) ;
#108 = CIRCLE ( 'NONE', #92, 6.000000000000000888 ) ;
#109 = ORIENTED_EDGE ( 'NONE', *, *, #140, .F. ) ;
#110 = SHAPE_DEFINITION_REPRESENTATION ( #84, #33 ) ;
#111 = ORIENTED_EDGE ( 'NONE', *, *, #39, .T. ) ;
#112 = PERSON_AND_ORGANIZATION ( #199, #189 ) ;
#113 = AXIS2_PLACEMENT_3D ( 'NONE', #176, #283, #26 ) ;
#114 = DATE_TIME_ROLE ( 'classification_date' ) ;
#115 = FACE_OUTER_BOUND ( 'NONE', #195, .T. ) ;
#116 = CLOSED_SHELL ( 'NONE', ( #4, #231, #168, #191, #8, #22, #218 ) ) ;
#117 = EDGE_CURVE ( 'NONE', #10, #10, #83, .T. ) ;
#118 = DIRECTION ( 'NONE',  ( 1.000000000000000000, 0.0000000000000000000, 0.0000000000000000000 ) ) ;
#119 = CARTESIAN_POINT ( 'NONE',  ( 7.093418697316139081E-14, -2.488036354666161521E-15, 20.31635861375238150 ) ) ;
#120 = DIRECTION ( 'NONE',  ( 3.491481338843133355E-15, -1.224646799147353207E-16, 1.000000000000000000 ) ) ;
#121 = APPLICATION_CONTEXT ( 'configuration controlled 3d designs of mechanical parts and assemblies' ) ;
#122 =( NAMED_UNIT ( * ) SI_UNIT ( $, .STERADIAN. ) SOLID_ANGLE_UNIT ( ) );
#123 = EDGE_LOOP ( 'NONE', ( #47 ) ) ;
#124 = FACE_OUTER_BOUND ( 'NONE', #228, .T. ) ;
#125 = CYLINDRICAL_SURFACE ( 'NONE', #73, 5.509999999999998899 ) ;
#126 = LOCAL_TIME ( 9, 36, 37.00000000000000000, #63 ) ;
#127 = DATE_AND_TIME ( #280, #126 ) ;
#128 = CC_DESIGN_DATE_AND_TIME_ASSIGNMENT ( #177, #114, ( #62 ) ) ;
#129 = AXIS2_PLACEMENT_3D ( 'NONE', #204, #159, #247 ) ;
#130 = EDGE_LOOP ( 'NONE', ( #133 ) ) ;
#131 = DIRECTION ( 'NONE',  ( 4.275831445896958607E-31, 1.000000000000000000, 1.224646799147353207E-16 ) ) ;
#132 = EDGE_LOOP ( 'NONE', ( #146 ) ) ;
#133 = ORIENTED_EDGE ( 'NONE', *, *, #174, .T. ) ;
#134 = COORDINATED_UNIVERSAL_TIME_OFFSET ( 1, 0, .AHEAD. ) ;
#135 = DIRECTION ( 'NONE',  ( 3.491481338843133355E-15, -1.224646799147353207E-16, 1.000000000000000000 ) ) ;
#136 = CC_DESIGN_APPROVAL ( #257, ( #62 ) ) ;
#137 = PERSON_AND_ORGANIZATION ( #199, #189 ) ;
#138 = EDGE_LOOP ( 'NONE', ( #38 ) ) ;
#139 = ORIENTED_EDGE ( 'NONE', *, *, #28, .F. ) ;
#140 = EDGE_CURVE ( 'NONE', #142, #142, #255, .T. ) ;
#141 = PLANE ( 'NONE',  #129 ) ;
#142 = VERTEX_POINT ( 'NONE', #264 ) ;
#143 = CYLINDRICAL_SURFACE ( 'NONE', #154, 5.999999999999998224 ) ;
#144 = CARTESIAN_POINT ( 'NONE',  ( 4.922988687768816390E-13, 5.999999999999984013, 140.9999999999999716 ) ) ;
#145 = TOROIDAL_SURFACE ( 'NONE', #59, 6.750000000000001776, 1.999999999999997113 ) ;
#146 = ORIENTED_EDGE ( 'NONE', *, *, #171, .F. ) ;
#147 = DIRECTION ( 'NONE',  ( 0.0000000000000000000, 1.000000000000000000, 0.0000000000000000000 ) ) ;
#148 = DIRECTION ( 'NONE',  ( 0.0000000000000000000, 1.000000000000000000, 0.0000000000000000000 ) ) ;
#149 = CIRCLE ( 'NONE', #193, 5.999999999999994671 ) ;
#150 = DATE_TIME_ROLE ( 'creation_date' ) ;
#151 = LOCAL_TIME ( 9, 36, 37.00000000000000000, #65 ) ;
#152 = DIRECTION ( 'NONE',  ( 4.275831445896958607E-31, 1.000000000000000000, 1.224646799147352961E-16 ) ) ;
#153 = DESIGN_CONTEXT ( 'detailed design', #121, 'design' ) ;
#154 = AXIS2_PLACEMENT_3D ( 'NONE', #82, #225, #7 ) ;
#155 = CARTESIAN_POINT ( 'NONE',  ( 6.633814543801952113E-14, -2.326828918379970970E-15, 19.00000000000000000 ) ) ;
#156 = PLANE ( 'NONE',  #180 ) ;
#157 = DIRECTION ( 'NONE',  ( -3.491481338843133355E-15, 1.224646799147353207E-16, -1.000000000000000000 ) ) ;
#158 = CARTESIAN_POINT ( 'NONE',  ( 3.351822085289408021E-13, 4.749999999999989342, 96.00000000000000000 ) ) ;
#159 = DIRECTION ( 'NONE',  ( 3.491481338843133355E-15, -1.224646799147353207E-16, 1.000000000000000000 ) ) ;
#160 = CARTESIAN_POINT ( 'NONE',  ( 4.957903501157248607E-13, -1.738998454789241313E-14, 142.0000000000000000 ) ) ;
#161 = VERTEX_POINT ( 'NONE', #55 ) ;
#162 = ORIENTED_EDGE ( 'NONE', *, *, #140, .T. ) ;
#163 = APPLICATION_PROTOCOL_DEFINITION ( 'international standard', 'config_control_design', 1994, #233 ) ;
#164 = AXIS2_PLACEMENT_3D ( 'NONE', #229, #184, #118 ) ;
#165 = FACE_BOUND ( 'NONE', #35, .T. ) ;
#166 = PLANE ( 'NONE',  #226 ) ;
#167 = APPROVAL ( #88, 'UNSPECIFIED' ) ;
#168 = ADVANCED_FACE ( 'NONE', ( #42, #214 ), #19, .T. ) ;
#169 = APPROVAL_DATE_TIME ( #86, #34 ) ;
#170 = AXIS2_PLACEMENT_3D ( 'NONE', #93, #256, #12 ) ;
#171 = EDGE_CURVE ( 'NONE', #97, #97, #14, .T. ) ;
#172 = EDGE_LOOP ( 'NONE', ( #281 ) ) ;
#173 = APPROVAL_DATE_TIME ( #75, #167 ) ;
#174 = EDGE_CURVE ( 'NONE', #6, #6, #232, .T. ) ;
#175 = PERSON_AND_ORGANIZATION_ROLE ( 'design_supplier' ) ;
#176 = CARTESIAN_POINT ( 'NONE',  ( 3.351822085289408021E-13, -1.175660927181459158E-14, 96.00000000000000000 ) ) ;
#177 = DATE_AND_TIME ( #2, #243 ) ;
#178 = SECURITY_CLASSIFICATION_LEVEL ( 'unclassified' ) ;
#179 = CARTESIAN_POINT ( 'NONE',  ( 1.745740669421564508E-15, -6.123233995736758640E-17, 0.4999999999999993339 ) ) ;
#180 = AXIS2_PLACEMENT_3D ( 'NONE', #70, #135, #96 ) ;
#181 = DIRECTION ( 'NONE',  ( -3.491481338843133355E-15, 1.224646799147353207E-16, -1.000000000000000000 ) ) ;
#182 = DIRECTION ( 'NONE',  ( 0.0000000000000000000, 1.000000000000000000, 0.0000000000000000000 ) ) ;
#183 = CC_DESIGN_PERSON_AND_ORGANIZATION_ASSIGNMENT ( #251, #66, ( #40 ) ) ;
#184 = DIRECTION ( 'NONE',  ( 0.0000000000000000000, 0.0000000000000000000, 1.000000000000000000 ) ) ;
#185 = DIRECTION ( 'NONE',  ( 0.0000000000000000000, 1.000000000000000000, 0.0000000000000000000 ) ) ;
#186 = CARTESIAN_POINT ( 'NONE',  ( 6.633814543801952113E-14, -2.326828918379970970E-15, 19.00000000000000000 ) ) ;
#187 = CARTESIAN_POINT ( 'NONE',  ( 4.957903501157248607E-13, -1.738998454789241313E-14, 142.0000000000000000 ) ) ;
#188 = DIRECTION ( 'NONE',  ( -4.275831445896958607E-31, -1.000000000000000000, -1.224646799147353207E-16 ) ) ;
#189 = ORGANIZATION ( 'UNSPECIFIED', 'UNSPECIFIED', '' ) ;
#190 = EDGE_LOOP ( 'NONE', ( #207 ) ) ;
#191 = ADVANCED_FACE ( 'NONE', ( #240, #30 ), #145, .F. ) ;
#192 = PERSON_AND_ORGANIZATION ( #199, #189 ) ;
#193 = AXIS2_PLACEMENT_3D ( 'NONE', #13, #205, #101 ) ;
#194 = EDGE_LOOP ( 'NONE', ( #224 ) ) ;
#195 = EDGE_LOOP ( 'NONE', ( #105 ) ) ;
#196 = APPROVAL_ROLE ( '' ) ;
#197 = AXIS2_PLACEMENT_3D ( 'NONE', #58, #60, #148 ) ;
#198 = DIRECTION ( 'NONE',  ( 4.275831445896958607E-31, 1.000000000000000000, 1.224646799147353454E-16 ) ) ;
#199 = PERSON ( 'UNSPECIFIED', 'UNSPECIFIED', 'UNSPECIFIED', ('UNSPECIFIED'), ('UNSPECIFIED'), ('UNSPECIFIED') ) ;
#200 = CARTESIAN_POINT ( 'NONE',  ( 6.633814543801952113E-14, 5.509999999999997122, 19.00000000000000000 ) ) ;
#201 = CC_DESIGN_PERSON_AND_ORGANIZATION_ASSIGNMENT ( #137, #175, ( #69 ) ) ;
#202 = FACE_BOUND ( 'NONE', #132, .T. ) ;
#203 = CC_DESIGN_SECURITY_CLASSIFICATION ( #62, ( #69 ) ) ;
#204 = CARTESIAN_POINT ( 'NONE',  ( 6.633814543801952113E-14, 4.131838201233413933E-32, 19.00000000000000000 ) ) ;
#205 = DIRECTION ( 'NONE',  ( -3.491481338843133355E-15, 1.224646799147353207E-16, -1.000000000000000000 ) ) ;
#206 = ADVANCED_FACE ( 'NONE', ( #237 ), #156, .F. ) ;
#207 = ORIENTED_EDGE ( 'NONE', *, *, #28, .T. ) ;
#208 = DIRECTION ( 'NONE',  ( 4.194402782694526971E-31, 1.000000000000000000, 1.180619425574052698E-16 ) ) ;
#209 = FACE_OUTER_BOUND ( 'NONE', #194, .T. ) ;
#210 = CC_DESIGN_APPROVAL ( #167, ( #69 ) ) ;
#211 = CARTESIAN_POINT ( 'NONE',  ( -6.280028932878487374E-31, 2.202737630483994381E-32, -1.798671773786226489E-16 ) ) ;
#212 = APPLICATION_PROTOCOL_DEFINITION ( 'international standard', 'config_control_design', 1994, #121 ) ;
#213 = PERSON_AND_ORGANIZATION ( #199, #189 ) ;
#214 = FACE_OUTER_BOUND ( 'NONE', #130, .T. ) ;
#215 = AXIS2_PLACEMENT_3D ( 'NONE', #186, #266, #182 ) ;
#216 = EDGE_LOOP ( 'NONE', ( #21 ) ) ;
#217 = CC_DESIGN_DATE_AND_TIME_ASSIGNMENT ( #127, #150, ( #40 ) ) ;
#218 = ADVANCED_FACE ( 'NONE', ( #235 ), #23, .F. ) ;
#219 = APPROVAL_PERSON_ORGANIZATION ( #258, #257, #196 ) ;
#220 = CC_DESIGN_PERSON_AND_ORGANIZATION_ASSIGNMENT ( #43, #275, ( #17 ) ) ;
#221 = FACE_OUTER_BOUND ( 'NONE', #56, .T. ) ;
#222 = AXIS2_PLACEMENT_3D ( 'NONE', #179, #262, #74 ) ;
#223 = PRODUCT_RELATED_PRODUCT_CATEGORY ( 'detail', '', ( #17 ) ) ;
#224 = ORIENTED_EDGE ( 'NONE', *, *, #265, .T. ) ;
#225 = DIRECTION ( 'NONE',  ( -3.491481338843133355E-15, 1.224646799147353207E-16, -1.000000000000000000 ) ) ;
#226 = AXIS2_PLACEMENT_3D ( 'NONE', #241, #120, #188 ) ;
#227 = VERTEX_POINT ( 'NONE', #37 ) ;
#228 = EDGE_LOOP ( 'NONE', ( #72 ) ) ;
#229 = CARTESIAN_POINT ( 'NONE',  ( 0.0000000000000000000, 0.0000000000000000000, 0.0000000000000000000 ) ) ;
#230 = FACE_OUTER_BOUND ( 'NONE', #216, .T. ) ;
#231 = ADVANCED_FACE ( 'NONE', ( #124, #244 ), #18, .T. ) ;
#232 = CIRCLE ( 'NONE', #113, 4.750000000000001776 ) ;
#233 = APPLICATION_CONTEXT ( 'configuration controlled 3d designs of mechanical parts and assemblies' ) ;
#234 = CLOSED_SHELL ( 'NONE', ( #206, #61, #32, #277 ) ) ;
#235 = FACE_OUTER_BOUND ( 'NONE', #103, .T. ) ;
#236 = ORIENTED_EDGE ( 'NONE', *, *, #51, .T. ) ;
#237 = FACE_OUTER_BOUND ( 'NONE', #172, .T. ) ;
#238 = AXIS2_PLACEMENT_3D ( 'NONE', #160, #68, #16 ) ;
#239 = APPROVAL_STATUS ( 'not_yet_approved' ) ;
#240 = FACE_OUTER_BOUND ( 'NONE', #85, .T. ) ;
#241 = CARTESIAN_POINT ( 'NONE',  ( 6.633814543801952113E-14, 4.131838201233413933E-32, 19.00000000000000000 ) ) ;
#242 = VERTEX_POINT ( 'NONE', #200 ) ;
#243 = LOCAL_TIME ( 9, 36, 37.00000000000000000, #134 ) ;
#244 = FACE_BOUND ( 'NONE', #190, .T. ) ;
#245 = MECHANICAL_CONTEXT ( 'NONE', #233, 'mechanical' ) ;
#246 = CC_DESIGN_PERSON_AND_ORGANIZATION_ASSIGNMENT ( #112, #90, ( #62 ) ) ;
#247 = DIRECTION ( 'NONE',  ( -4.275831445896958607E-31, -1.000000000000000000, -1.224646799147353207E-16 ) ) ;
#248 = CIRCLE ( 'NONE', #95, 5.509999999999997122 ) ;
#249 = DIRECTION ( 'NONE',  ( 0.0000000000000000000, 1.000000000000000000, 0.0000000000000000000 ) ) ;
#250 = LOCAL_TIME ( 9, 36, 37.00000000000000000, #254 ) ;
#251 = PERSON_AND_ORGANIZATION ( #199, #189 ) ;
#252 = APPROVAL_ROLE ( '' ) ;
#253 = APPROVAL_ROLE ( '' ) ;
#254 = COORDINATED_UNIVERSAL_TIME_OFFSET ( 1, 0, .AHEAD. ) ;
#255 = CIRCLE ( 'NONE', #238, 5.000000000000000888 ) ;
#256 = DIRECTION ( 'NONE',  ( -3.491481338843133355E-15, 1.224646799147353207E-16, -1.000000000000000000 ) ) ;
#257 = APPROVAL ( #239, 'UNSPECIFIED' ) ;
#258 = PERSON_AND_ORGANIZATION ( #199, #189 ) ;
#259 = UNCERTAINTY_MEASURE_WITH_UNIT (LENGTH_MEASURE( 1.000000000000000082E-05 ), #98, 'distance_accuracy_value', 'NONE');
#260 = CALENDAR_DATE ( 2021, 2, 12 ) ;
#261 = CIRCLE ( 'NONE', #215, 5.509999999999999787 ) ;
#262 = DIRECTION ( 'NONE',  ( 3.491481338843133355E-15, -1.224646799147353207E-16, 1.000000000000000000 ) ) ;
#263 = DIRECTION ( 'NONE',  ( 4.275831445896958607E-31, 1.000000000000000000, 1.224646799147353207E-16 ) ) ;
#264 = CARTESIAN_POINT ( 'NONE',  ( 4.957903501157248607E-13, 4.999999999999984013, 142.0000000000000000 ) ) ;
#265 = EDGE_CURVE ( 'NONE', #242, #242, #261, .T. ) ;
#266 = DIRECTION ( 'NONE',  ( -3.491481338843133355E-15, 1.224646799147353207E-16, -1.000000000000000000 ) ) ;
#267 =( GEOMETRIC_REPRESENTATION_CONTEXT ( 3 ) GLOBAL_UNCERTAINTY_ASSIGNED_CONTEXT ( ( #259 ) ) GLOBAL_UNIT_ASSIGNED_CONTEXT ( ( #98, #79, #122 ) ) REPRESENTATION_CONTEXT ( 'NONE', 'WORKASPACE' ) );
#268 = EDGE_CURVE ( 'NONE', #227, #227, #248, .T. ) ;
#269 = EDGE_LOOP ( 'NONE', ( #236 ) ) ;
#270 = DIRECTION ( 'NONE',  ( -3.491481338843133355E-15, 1.224646799147353207E-16, -1.000000000000000000 ) ) ;
#271 = CARTESIAN_POINT ( 'NONE',  ( 6.633814543801952113E-14, 5.509999999999997122, 19.00000000000000000 ) ) ;
#272 = FACE_OUTER_BOUND ( 'NONE', #269, .T. ) ;
#273 = CC_DESIGN_APPROVAL ( #34, ( #40 ) ) ;
#274 = APPROVAL_PERSON_ORGANIZATION ( #192, #34, #253 ) ;
#275 = PERSON_AND_ORGANIZATION_ROLE ( 'design_owner' ) ;
#276 = DIRECTION ( 'NONE',  ( -3.491481338843133355E-15, 1.224646799147353207E-16, -1.000000000000000000 ) ) ;
#277 = ADVANCED_FACE ( 'NONE', ( #99 ), #141, .T. ) ;
#278 = CALENDAR_DATE ( 2021, 2, 12 ) ;
#279 = AXIS2_PLACEMENT_3D ( 'NONE', #211, #5, #152 ) ;
#280 = CALENDAR_DATE ( 2021, 2, 12 ) ;
#281 = ORIENTED_EDGE ( 'NONE', *, *, #171, .T. ) ;
#282 = PERSON_AND_ORGANIZATION_ROLE ( 'creator' ) ;
#283 = DIRECTION ( 'NONE',  ( -3.491481338843133355E-15, 1.224646799147353207E-16, -1.000000000000000000 ) ) ;
ENDSEC;
END-ISO-10303-21;
