ISO-10303-21;
HEADER;
FILE_DESCRIPTION (( 'STEP AP203' ),
    '1' );
FILE_NAME ('963738.step',
    '2021-12-02T08:36:37',
    ( '' ),
    ( '' ),
    'SwSTEP 2.0',
    'SolidWorks 2019',
    '' );
FILE_SCHEMA (( 'CONFIG_CONTROL_DESIGN' ));
ENDSEC;

DATA;
#1 = MECHANICAL_CONTEXT ( 'NONE', #13, 'mechanical' ) ;
#2 = FACE_OUTER_BOUND ( 'NONE', #58, .T. ) ;
#3 = DATE_AND_TIME ( #121, #245 ) ;
#4 = DIRECTION ( 'NONE',  ( -4.275831445896958607E-31, -1.000000000000000000, -1.224646799147353207E-16 ) ) ;
#5 = FACE_OUTER_BOUND ( 'NONE', #138, .T. ) ;
#6 = ADVANCED_FACE ( 'NONE', ( #118, #179 ), #272, .T. ) ;
#7 = AXIS2_PLACEMENT_3D ( 'NONE', #47, #88, #126 ) ;
#8 = CARTESIAN_POINT ( 'NONE',  ( 1.745740669421564903E-15, -6.123233995736759873E-17, 0.4999999999999994449 ) ) ;
#9 = DIRECTION ( 'NONE',  ( -4.198212412833213721E-31, -1.000000000000000000, -1.181691741128615765E-16 ) ) ;
#10 = EDGE_LOOP ( 'NONE', ( #228 ) ) ;
#11 = AXIS2_PLACEMENT_3D ( 'NONE', #103, #234, #190 ) ;
#12 = ORIENTED_EDGE ( 'NONE', *, *, #159, .F. ) ;
#13 = APPLICATION_CONTEXT ( 'configuration controlled 3d designs of mechanical parts and assemblies' ) ;
#14 = ORIENTED_EDGE ( 'NONE', *, *, #280, .T. ) ;
#15 = ORIENTED_EDGE ( 'NONE', *, *, #130, .T. ) ;
#16 = DATE_AND_TIME ( #235, #33 ) ;
#17 = CYLINDRICAL_SURFACE ( 'NONE', #11, 5.504999999999998117 ) ;
#18 =( LENGTH_UNIT ( ) NAMED_UNIT ( * ) SI_UNIT ( .MILLI., .METRE. ) );
#19 = DIRECTION ( 'NONE',  ( 1.000000000000000000, 0.0000000000000000000, 0.0000000000000000000 ) ) ;
#20 = FACE_BOUND ( 'NONE', #79, .T. ) ;
#21 = ADVANCED_FACE ( 'NONE', ( #23, #105 ), #75, .F. ) ;
#22 = PERSON_AND_ORGANIZATION ( #78, #242 ) ;
#23 = FACE_OUTER_BOUND ( 'NONE', #10, .T. ) ;
#24 = CIRCLE ( 'NONE', #256, 5.504999999999999893 ) ;
#25 = DATE_TIME_ROLE ( 'creation_date' ) ;
#26 = EDGE_CURVE ( 'NONE', #156, #156, #172, .T. ) ;
#27 = CARTESIAN_POINT ( 'NONE',  ( 1.745740669421564903E-15, -6.123233995736759873E-17, 0.4999999999999994449 ) ) ;
#28 = DIRECTION ( 'NONE',  ( 4.275831445896958607E-31, 1.000000000000000000, 1.224646799147353207E-16 ) ) ;
#29 = ADVANCED_FACE ( 'NONE', ( #253, #44 ), #95, .T. ) ;
#30 = ADVANCED_FACE ( 'NONE', ( #164, #90 ), #61, .T. ) ;
#31 = APPLICATION_CONTEXT ( 'configuration controlled 3d designs of mechanical parts and assemblies' ) ;
#32 = AXIS2_PLACEMENT_3D ( 'NONE', #258, #65, #218 ) ;
#33 = LOCAL_TIME ( 9, 36, 37.00000000000000000, #168 ) ;
#34 = EDGE_CURVE ( 'NONE', #246, #246, #45, .T. ) ;
#35 = CC_DESIGN_PERSON_AND_ORGANIZATION_ASSIGNMENT ( #209, #102, ( #267 ) ) ;
#36 = CARTESIAN_POINT ( 'NONE',  ( 4.957903501157248607E-13, 4.999999999999984013, 142.0000000000000000 ) ) ;
#37 = ORIENTED_EDGE ( 'NONE', *, *, #130, .F. ) ;
#38 = APPROVAL ( #149, 'UNSPECIFIED' ) ;
#39 = FACE_OUTER_BOUND ( 'NONE', #201, .T. ) ;
#40 = PERSON_AND_ORGANIZATION_ROLE ( 'creator' ) ;
#41 = CARTESIAN_POINT ( 'NONE',  ( 6.633814543801952113E-14, -2.326828918379970970E-15, 19.00000000000000000 ) ) ;
#42 = DATE_AND_TIME ( #212, #224 ) ;
#43 = DIRECTION ( 'NONE',  ( 0.0000000000000000000, 1.000000000000000000, 0.0000000000000000000 ) ) ;
#44 = FACE_BOUND ( 'NONE', #276, .T. ) ;
#45 = CIRCLE ( 'NONE', #188, 4.749999999999989342 ) ;
#46 = LOCAL_TIME ( 9, 36, 37.00000000000000000, #83 ) ;
#47 = CARTESIAN_POINT ( 'NONE',  ( 4.957903501157248607E-13, -1.738998454789241313E-14, 142.0000000000000000 ) ) ;
#48 = EDGE_CURVE ( 'NONE', #203, #203, #133, .T. ) ;
#49 = DIRECTION ( 'NONE',  ( -3.491481338843133355E-15, 1.224646799147353207E-16, -1.000000000000000000 ) ) ;
#50 = CC_DESIGN_APPROVAL ( #173, ( #267 ) ) ;
#51 =( NAMED_UNIT ( * ) PLANE_ANGLE_UNIT ( ) SI_UNIT ( $, .RADIAN. ) );
#52 = CIRCLE ( 'NONE', #7, 5.000000000000000888 ) ;
#53 = ORIENTED_EDGE ( 'NONE', *, *, #243, .T. ) ;
#54 = CARTESIAN_POINT ( 'NONE',  ( 6.633814543801952113E-14, 5.504999999999997229, 19.00000000000000000 ) ) ;
#55 = ADVANCED_FACE ( 'NONE', ( #141 ), #145, .T. ) ;
#56 = ORIENTED_EDGE ( 'NONE', *, *, #243, .F. ) ;
#57 = VERTEX_POINT ( 'NONE', #117 ) ;
#58 = EDGE_LOOP ( 'NONE', ( #247 ) ) ;
#59 = VERTEX_POINT ( 'NONE', #250 ) ;
#60 = EDGE_LOOP ( 'NONE', ( #225 ) ) ;
#61 = CYLINDRICAL_SURFACE ( 'NONE', #112, 4.749999999999995559 ) ;
#62 = MANIFOLD_SOLID_BREP ( 'Corps-Déplacer/Copier1[2]', #270 ) ;
#63 = DIRECTION ( 'NONE',  ( 0.0000000000000000000, 1.000000000000000000, 0.0000000000000000000 ) ) ;
#64 = COORDINATED_UNIVERSAL_TIME_OFFSET ( 1, 0, .AHEAD. ) ;
#65 = DIRECTION ( 'NONE',  ( -3.491481338843133355E-15, 1.224646799147353207E-16, -1.000000000000000000 ) ) ;
#66 = PERSON_AND_ORGANIZATION_ROLE ( 'design_owner' ) ;
#67 = DIRECTION ( 'NONE',  ( -3.491481338843133355E-15, 1.224646799147353207E-16, -1.000000000000000000 ) ) ;
#68 = DIRECTION ( 'NONE',  ( 0.0000000000000000000, 0.0000000000000000000, 1.000000000000000000 ) ) ;
#69 = DIRECTION ( 'NONE',  ( 3.491481338843133355E-15, -1.224646799147353207E-16, 1.000000000000000000 ) ) ;
#70 = CARTESIAN_POINT ( 'NONE',  ( 2.402512344648158430E-30, -8.426878929733152787E-32, 6.881068840093547092E-16 ) ) ;
#71 = CONICAL_SURFACE ( 'NONE', #178, 4.749999999999989342, 0.5235987755982937086 ) ;
#72 = DIRECTION ( 'NONE',  ( -4.275831445896958607E-31, -1.000000000000000000, -1.224646799147353207E-16 ) ) ;
#73 = DIRECTION ( 'NONE',  ( 4.275831445896958607E-31, 1.000000000000000000, 1.224646799147353207E-16 ) ) ;
#74 = CIRCLE ( 'NONE', #202, 5.504999999999999893 ) ;
#75 = TOROIDAL_SURFACE ( 'NONE', #136, 6.750000000000001776, 1.999999999999997113 ) ;
#76 = EDGE_LOOP ( 'NONE', ( #101 ) ) ;
#77 = CARTESIAN_POINT ( 'NONE',  ( 3.416555881846535738E-13, 5.999999999999983125, 97.85404962177391042 ) ) ;
#78 = PERSON ( 'UNSPECIFIED', 'UNSPECIFIED', 'UNSPECIFIED', ('UNSPECIFIED'), ('UNSPECIFIED'), ('UNSPECIFIED') ) ;
#79 = EDGE_LOOP ( 'NONE', ( #279 ) ) ;
#80 = CIRCLE ( 'NONE', #215, 6.000000000000000888 ) ;
#81 = ORIENTED_EDGE ( 'NONE', *, *, #34, .T. ) ;
#82 = SHAPE_DEFINITION_REPRESENTATION ( #238, #194 ) ;
#83 = COORDINATED_UNIVERSAL_TIME_OFFSET ( 1, 0, .AHEAD. ) ;
#84 = CARTESIAN_POINT ( 'NONE',  ( 3.351822085289408021E-13, -1.214306433183764966E-14, 96.00000000000000000 ) ) ;
#85 = PERSON_AND_ORGANIZATION_ROLE ( 'classification_officer' ) ;
#86 = CARTESIAN_POINT ( 'NONE',  ( 3.416555881846535738E-13, -1.198366486529116725E-14, 97.85404962177391042 ) ) ;
#87 = CALENDAR_DATE ( 2021, 2, 12 ) ;
#88 = DIRECTION ( 'NONE',  ( -3.491481338843133355E-15, 1.224646799147353207E-16, -1.000000000000000000 ) ) ;
#89 = DATE_TIME_ROLE ( 'classification_date' ) ;
#90 = FACE_OUTER_BOUND ( 'NONE', #274, .T. ) ;
#91 = APPROVAL_PERSON_ORGANIZATION ( #189, #38, #127 ) ;
#92 = AXIS2_PLACEMENT_3D ( 'NONE', #196, #174, #72 ) ;
#93 = CARTESIAN_POINT ( 'NONE',  ( 6.633814543801952113E-14, 5.504999999999997229, 19.00000000000000000 ) ) ;
#94 = VERTEX_POINT ( 'NONE', #93 ) ;
#95 = CONICAL_SURFACE ( 'NONE', #223, 5.000000000000000888, 0.7853981633974339571 ) ;
#96 = CARTESIAN_POINT ( 'NONE',  ( 4.542565983319587431E-30, 5.005000000000002558, 1.301042606982605321E-15 ) ) ;
#97 = ORIENTED_EDGE ( 'NONE', *, *, #214, .T. ) ;
#98 = ORIENTED_EDGE ( 'NONE', *, *, #34, .F. ) ;
#99 = LOCAL_TIME ( 9, 36, 37.00000000000000000, #206 ) ;
#100 = PERSON_AND_ORGANIZATION ( #78, #242 ) ;
#101 = ORIENTED_EDGE ( 'NONE', *, *, #26, .T. ) ;
#102 = PERSON_AND_ORGANIZATION_ROLE ( 'creator' ) ;
#103 = CARTESIAN_POINT ( 'NONE',  ( 0.0000000000000000000, 0.0000000000000000000, 0.0000000000000000000 ) ) ;
#104 = APPROVAL_STATUS ( 'not_yet_approved' ) ;
#105 = FACE_OUTER_BOUND ( 'NONE', #76, .T. ) ;
#106 = AXIS2_PLACEMENT_3D ( 'NONE', #70, #114, #28 ) ;
#107 = DIRECTION ( 'NONE',  ( 0.0000000000000000000, 1.000000000000000000, 0.0000000000000000000 ) ) ;
#108 = APPROVAL_ROLE ( '' ) ;
#109 = DIRECTION ( 'NONE',  ( 0.0000000000000000000, 1.000000000000000000, 0.0000000000000000000 ) ) ;
#110 = CARTESIAN_POINT ( 'NONE',  ( 7.090394985779860946E-14, -2.486975779427436082E-15, 20.30769835971453574 ) ) ;
#111 = PLANE ( 'NONE',  #92 ) ;
#112 = AXIS2_PLACEMENT_3D ( 'NONE', #230, #150, #263 ) ;
#113 = CC_DESIGN_APPROVAL ( #269, ( #137 ) ) ;
#114 = DIRECTION ( 'NONE',  ( -3.491481338843133355E-15, 1.224646799147353207E-16, -1.000000000000000000 ) ) ;
#115 = DIRECTION ( 'NONE',  ( 3.491481338843133355E-15, -1.224646799147353207E-16, 1.000000000000000000 ) ) ;
#116 = CC_DESIGN_DATE_AND_TIME_ASSIGNMENT ( #16, #25, ( #211 ) ) ;
#117 = CARTESIAN_POINT ( 'NONE',  ( 3.351822085289408021E-13, 4.749999999999989342, 96.00000000000000000 ) ) ;
#118 = FACE_OUTER_BOUND ( 'NONE', #157, .T. ) ;
#119 = ORIENTED_EDGE ( 'NONE', *, *, #26, .F. ) ;
#120 = VERTEX_POINT ( 'NONE', #54 ) ;
#121 = CALENDAR_DATE ( 2021, 2, 12 ) ;
#122 = EDGE_LOOP ( 'NONE', ( #81 ) ) ;
#123 = DIRECTION ( 'NONE',  ( -3.491481338843133355E-15, 1.224646799147353207E-16, -1.000000000000000000 ) ) ;
#124 = APPROVAL_DATE_TIME ( #3, #173 ) ;
#125 = CARTESIAN_POINT ( 'NONE',  ( 6.633814543801952113E-14, 4.128088801776758988E-32, 19.00000000000000000 ) ) ;
#126 = DIRECTION ( 'NONE',  ( 0.0000000000000000000, 1.000000000000000000, 0.0000000000000000000 ) ) ;
#127 = APPROVAL_ROLE ( '' ) ;
#128 = PLANE ( 'NONE',  #143 ) ;
#129 =( NAMED_UNIT ( * ) SI_UNIT ( $, .STERADIAN. ) SOLID_ANGLE_UNIT ( ) );
#130 = EDGE_CURVE ( 'NONE', #249, #249, #52, .T. ) ;
#131 = FACE_OUTER_BOUND ( 'NONE', #134, .T. ) ;
#132 = DIRECTION ( 'NONE',  ( -3.491481338843133355E-15, 1.224646799147353207E-16, -1.000000000000000000 ) ) ;
#133 = CIRCLE ( 'NONE', #153, 5.504999999999997229 ) ;
#134 = EDGE_LOOP ( 'NONE', ( #37 ) ) ;
#135 = CARTESIAN_POINT ( 'NONE',  ( 7.090394985779860946E-14, 4.749999999999986677, 20.30769835971453574 ) ) ;
#136 = AXIS2_PLACEMENT_3D ( 'NONE', #84, #255, #237 ) ;
#137 = SECURITY_CLASSIFICATION ( '', '', #281 ) ;
#138 = EDGE_LOOP ( 'NONE', ( #204 ) ) ;
#139 = ORIENTED_EDGE ( 'NONE', *, *, #192, .T. ) ;
#140 = APPROVAL_DATE_TIME ( #278, #269 ) ;
#141 = FACE_OUTER_BOUND ( 'NONE', #163, .T. ) ;
#142 = EDGE_LOOP ( 'NONE', ( #162 ) ) ;
#143 = AXIS2_PLACEMENT_3D ( 'NONE', #167, #207, #4 ) ;
#144 = UNCERTAINTY_MEASURE_WITH_UNIT (LENGTH_MEASURE( 1.000000000000000082E-05 ), #18, 'distance_accuracy_value', 'NONE');
#145 = PLANE ( 'NONE',  #266 ) ;
#146 = DIRECTION ( 'NONE',  ( 0.0000000000000000000, 1.000000000000000000, 0.0000000000000000000 ) ) ;
#147 = COORDINATED_UNIVERSAL_TIME_OFFSET ( 1, 0, .AHEAD. ) ;
#148 = FACE_OUTER_BOUND ( 'NONE', #60, .T. ) ;
#149 = APPROVAL_STATUS ( 'not_yet_approved' ) ;
#150 = DIRECTION ( 'NONE',  ( -3.491481338843133355E-15, 1.224646799147353207E-16, -1.000000000000000000 ) ) ;
#151 =( GEOMETRIC_REPRESENTATION_CONTEXT ( 3 ) GLOBAL_UNCERTAINTY_ASSIGNED_CONTEXT ( ( #144 ) ) GLOBAL_UNIT_ASSIGNED_CONTEXT ( ( #18, #51, #129 ) ) REPRESENTATION_CONTEXT ( 'NONE', 'WORKASPACE' ) );
#152 = DIRECTION ( 'NONE',  ( 0.0000000000000000000, 1.000000000000000000, 0.0000000000000000000 ) ) ;
#153 = AXIS2_PLACEMENT_3D ( 'NONE', #27, #282, #191 ) ;
#154 = CARTESIAN_POINT ( 'NONE',  ( 3.351822085289408021E-13, -1.175660927181459158E-14, 96.00000000000000000 ) ) ;
#155 = FACE_OUTER_BOUND ( 'NONE', #205, .T. ) ;
#156 = VERTEX_POINT ( 'NONE', #77 ) ;
#157 = EDGE_LOOP ( 'NONE', ( #119 ) ) ;
#158 = ADVANCED_FACE ( 'NONE', ( #39 ), #128, .F. ) ;
#159 = EDGE_CURVE ( 'NONE', #94, #94, #74, .T. ) ;
#160 = CIRCLE ( 'NONE', #216, 4.750000000000001776 ) ;
#161 = EDGE_LOOP ( 'NONE', ( #98 ) ) ;
#162 = ORIENTED_EDGE ( 'NONE', *, *, #192, .F. ) ;
#163 = EDGE_LOOP ( 'NONE', ( #12 ) ) ;
#164 = FACE_OUTER_BOUND ( 'NONE', #161, .T. ) ;
#165 = ADVANCED_FACE ( 'NONE', ( #193, #220 ), #71, .T. ) ;
#166 = PERSON_AND_ORGANIZATION ( #78, #242 ) ;
#167 = CARTESIAN_POINT ( 'NONE',  ( 1.201256172324079215E-30, -4.213439464866576393E-32, 3.440534420046773546E-16 ) ) ;
#168 = COORDINATED_UNIVERSAL_TIME_OFFSET ( 1, 0, .AHEAD. ) ;
#169 = CARTESIAN_POINT ( 'NONE',  ( 6.633814543801952113E-14, -2.326828918379970970E-15, 19.00000000000000000 ) ) ;
#170 = APPROVAL_STATUS ( 'not_yet_approved' ) ;
#171 = DIRECTION ( 'NONE',  ( -3.491481338843133355E-15, 1.224646799147353207E-16, -1.000000000000000000 ) ) ;
#172 = CIRCLE ( 'NONE', #181, 5.999999999999994671 ) ;
#173 = APPROVAL ( #104, 'UNSPECIFIED' ) ;
#174 = DIRECTION ( 'NONE',  ( 3.491481338843133355E-15, -1.224646799147353207E-16, 1.000000000000000000 ) ) ;
#175 = AXIS2_PLACEMENT_3D ( 'NONE', #240, #49, #73 ) ;
#176 = CC_DESIGN_SECURITY_CLASSIFICATION ( #137, ( #267 ) ) ;
#177 = CARTESIAN_POINT ( 'NONE',  ( 4.922988687768816390E-13, -1.726751986797767482E-14, 140.9999999999999716 ) ) ;
#178 = AXIS2_PLACEMENT_3D ( 'NONE', #110, #213, #107 ) ;
#179 = FACE_OUTER_BOUND ( 'NONE', #252, .T. ) ;
#180 = ADVANCED_FACE ( 'NONE', ( #5, #2 ), #17, .T. ) ;
#181 = AXIS2_PLACEMENT_3D ( 'NONE', #86, #171, #146 ) ;
#182 = AXIS2_PLACEMENT_3D ( 'NONE', #244, #68, #19 ) ;
#183 = CALENDAR_DATE ( 2021, 2, 12 ) ;
#184 = PERSON_AND_ORGANIZATION ( #78, #242 ) ;
#185 = CARTESIAN_POINT ( 'NONE',  ( 4.957903501157248607E-13, -1.738998454789241313E-14, 142.0000000000000000 ) ) ;
#186 = PERSON_AND_ORGANIZATION_ROLE ( 'design_supplier' ) ;
#187 = DIRECTION ( 'NONE',  ( -4.275831445896958607E-31, -1.000000000000000000, -1.224646799147353207E-16 ) ) ;
#188 = AXIS2_PLACEMENT_3D ( 'NONE', #239, #67, #109 ) ;
#189 = PERSON_AND_ORGANIZATION ( #78, #242 ) ;
#190 = DIRECTION ( 'NONE',  ( 4.275831445896958607E-31, 1.000000000000000000, 1.224646799147353207E-16 ) ) ;
#191 = DIRECTION ( 'NONE',  ( 4.198212412833213721E-31, 1.000000000000000000, 1.181691741128615765E-16 ) ) ;
#192 = EDGE_CURVE ( 'NONE', #120, #120, #24, .T. ) ;
#193 = FACE_OUTER_BOUND ( 'NONE', #142, .T. ) ;
#194 = ADVANCED_BREP_SHAPE_REPRESENTATION ( '963738', ( #248, #62, #182 ), #151 ) ;
#195 = PRODUCT ( '963738', '963738', '', ( #1 ) ) ;
#196 = CARTESIAN_POINT ( 'NONE',  ( 6.633814543801952113E-14, 4.128088801776758988E-32, 19.00000000000000000 ) ) ;
#197 = CC_DESIGN_PERSON_AND_ORGANIZATION_ASSIGNMENT ( #100, #186, ( #267 ) ) ;
#198 = APPLICATION_PROTOCOL_DEFINITION ( 'international standard', 'config_control_design', 1994, #13 ) ;
#199 = APPROVAL_PERSON_ORGANIZATION ( #260, #173, #108 ) ;
#200 = ADVANCED_FACE ( 'NONE', ( #20, #148 ), #241, .T. ) ;
#201 = EDGE_LOOP ( 'NONE', ( #97 ) ) ;
#202 = AXIS2_PLACEMENT_3D ( 'NONE', #169, #123, #63 ) ;
#203 = VERTEX_POINT ( 'NONE', #251 ) ;
#204 = ORIENTED_EDGE ( 'NONE', *, *, #48, .F. ) ;
#205 = EDGE_LOOP ( 'NONE', ( #139 ) ) ;
#206 = COORDINATED_UNIVERSAL_TIME_OFFSET ( 1, 0, .AHEAD. ) ;
#207 = DIRECTION ( 'NONE',  ( 3.491481338843133355E-15, -1.224646799147353207E-16, 1.000000000000000000 ) ) ;
#208 = DESIGN_CONTEXT ( 'detailed design', #31, 'design' ) ;
#209 = PERSON_AND_ORGANIZATION ( #78, #242 ) ;
#210 = DIRECTION ( 'NONE',  ( 0.0000000000000000000, 1.000000000000000000, 0.0000000000000000000 ) ) ;
#211 = PRODUCT_DEFINITION ( 'UNKNOWN', '', #267, #208 ) ;
#212 = CALENDAR_DATE ( 2021, 2, 12 ) ;
#213 = DIRECTION ( 'NONE',  ( -3.491481338843133355E-15, 1.224646799147353207E-16, -1.000000000000000000 ) ) ;
#214 = EDGE_CURVE ( 'NONE', #271, #271, #283, .T. ) ;
#215 = AXIS2_PLACEMENT_3D ( 'NONE', #177, #265, #152 ) ;
#216 = AXIS2_PLACEMENT_3D ( 'NONE', #154, #132, #275 ) ;
#217 = DATE_AND_TIME ( #87, #46 ) ;
#218 = DIRECTION ( 'NONE',  ( 4.275831445896958607E-31, 1.000000000000000000, 1.224646799147353207E-16 ) ) ;
#219 = CC_DESIGN_PERSON_AND_ORGANIZATION_ASSIGNMENT ( #184, #85, ( #137 ) ) ;
#220 = FACE_BOUND ( 'NONE', #122, .T. ) ;
#221 = PLANE ( 'NONE',  #175 ) ;
#222 = CC_DESIGN_PERSON_AND_ORGANIZATION_ASSIGNMENT ( #166, #40, ( #211 ) ) ;
#223 = AXIS2_PLACEMENT_3D ( 'NONE', #185, #236, #43 ) ;
#224 = LOCAL_TIME ( 9, 36, 37.00000000000000000, #64 ) ;
#225 = ORIENTED_EDGE ( 'NONE', *, *, #48, .T. ) ;
#226 = CC_DESIGN_DATE_AND_TIME_ASSIGNMENT ( #42, #89, ( #137 ) ) ;
#227 = AXIS2_PLACEMENT_3D ( 'NONE', #8, #115, #9 ) ;
#228 = ORIENTED_EDGE ( 'NONE', *, *, #280, .F. ) ;
#229 = PERSON_AND_ORGANIZATION ( #78, #242 ) ;
#230 = CARTESIAN_POINT ( 'NONE',  ( 0.0000000000000000000, 0.0000000000000000000, 0.0000000000000000000 ) ) ;
#231 = CLOSED_SHELL ( 'NONE', ( #273, #165, #30, #21, #6, #29, #268 ) ) ;
#232 = APPROVAL_PERSON_ORGANIZATION ( #22, #269, #262 ) ;
#233 = APPLICATION_PROTOCOL_DEFINITION ( 'international standard', 'config_control_design', 1994, #31 ) ;
#234 = DIRECTION ( 'NONE',  ( -3.491481338843133355E-15, 1.224646799147353207E-16, -1.000000000000000000 ) ) ;
#235 = CALENDAR_DATE ( 2021, 2, 12 ) ;
#236 = DIRECTION ( 'NONE',  ( -3.491481338843133355E-15, 1.224646799147353207E-16, -1.000000000000000000 ) ) ;
#237 = DIRECTION ( 'NONE',  ( 4.275831445896958607E-31, 1.000000000000000000, 1.224646799147353207E-16 ) ) ;
#238 = PRODUCT_DEFINITION_SHAPE ( 'NONE', 'NONE',  #211 ) ;
#239 = CARTESIAN_POINT ( 'NONE',  ( 7.090394985779860946E-14, -2.486975779427436082E-15, 20.30769835971453574 ) ) ;
#240 = CARTESIAN_POINT ( 'NONE',  ( 4.957903501157248607E-13, 3.749399456654618840E-32, 142.0000000000000000 ) ) ;
#241 = CONICAL_SURFACE ( 'NONE', #227, 5.504999999999997229, 0.7853981633974438381 ) ;
#242 = ORGANIZATION ( 'UNSPECIFIED', 'UNSPECIFIED', '' ) ;
#243 = EDGE_CURVE ( 'NONE', #59, #59, #80, .T. ) ;
#244 = CARTESIAN_POINT ( 'NONE',  ( 0.0000000000000000000, 0.0000000000000000000, 0.0000000000000000000 ) ) ;
#245 = LOCAL_TIME ( 9, 36, 37.00000000000000000, #147 ) ;
#246 = VERTEX_POINT ( 'NONE', #135 ) ;
#247 = ORIENTED_EDGE ( 'NONE', *, *, #159, .T. ) ;
#248 = MANIFOLD_SOLID_BREP ( 'Corps-Déplacer/Copier1[1]', #231 ) ;
#249 = VERTEX_POINT ( 'NONE', #36 ) ;
#250 = CARTESIAN_POINT ( 'NONE',  ( 4.922988687768816390E-13, 5.999999999999984013, 140.9999999999999716 ) ) ;
#251 = CARTESIAN_POINT ( 'NONE',  ( 1.745740669421567072E-15, 5.504999999999997229, 0.5000000000000001110 ) ) ;
#252 = EDGE_LOOP ( 'NONE', ( #53 ) ) ;
#253 = FACE_OUTER_BOUND ( 'NONE', #254, .T. ) ;
#254 = EDGE_LOOP ( 'NONE', ( #56 ) ) ;
#255 = DIRECTION ( 'NONE',  ( -3.491481338843133355E-15, 1.224646799147353207E-16, -1.000000000000000000 ) ) ;
#256 = AXIS2_PLACEMENT_3D ( 'NONE', #41, #261, #210 ) ;
#257 = APPROVAL_DATE_TIME ( #217, #38 ) ;
#258 = CARTESIAN_POINT ( 'NONE',  ( 0.0000000000000000000, 0.0000000000000000000, 0.0000000000000000000 ) ) ;
#259 = CC_DESIGN_PERSON_AND_ORGANIZATION_ASSIGNMENT ( #229, #66, ( #195 ) ) ;
#260 = PERSON_AND_ORGANIZATION ( #78, #242 ) ;
#261 = DIRECTION ( 'NONE',  ( -3.491481338843133355E-15, 1.224646799147353207E-16, -1.000000000000000000 ) ) ;
#262 = APPROVAL_ROLE ( '' ) ;
#263 = DIRECTION ( 'NONE',  ( 4.275831445896958607E-31, 1.000000000000000000, 1.224646799147353207E-16 ) ) ;
#264 = PRODUCT_RELATED_PRODUCT_CATEGORY ( 'detail', '', ( #195 ) ) ;
#265 = DIRECTION ( 'NONE',  ( -3.491481338843133355E-15, 1.224646799147353207E-16, -1.000000000000000000 ) ) ;
#266 = AXIS2_PLACEMENT_3D ( 'NONE', #125, #69, #187 ) ;
#267 = PRODUCT_DEFINITION_FORMATION_WITH_SPECIFIED_SOURCE ( 'ANY', '', #195, .NOT_KNOWN. ) ;
#268 = ADVANCED_FACE ( 'NONE', ( #131 ), #221, .F. ) ;
#269 = APPROVAL ( #170, 'UNSPECIFIED' ) ;
#270 = CLOSED_SHELL ( 'NONE', ( #158, #200, #180, #55 ) ) ;
#271 = VERTEX_POINT ( 'NONE', #96 ) ;
#272 = CYLINDRICAL_SURFACE ( 'NONE', #32, 5.999999999999998224 ) ;
#273 = ADVANCED_FACE ( 'NONE', ( #155 ), #111, .F. ) ;
#274 = EDGE_LOOP ( 'NONE', ( #14 ) ) ;
#275 = DIRECTION ( 'NONE',  ( 0.0000000000000000000, 1.000000000000000000, 0.0000000000000000000 ) ) ;
#276 = EDGE_LOOP ( 'NONE', ( #15 ) ) ;
#277 = CC_DESIGN_APPROVAL ( #38, ( #211 ) ) ;
#278 = DATE_AND_TIME ( #183, #99 ) ;
#279 = ORIENTED_EDGE ( 'NONE', *, *, #214, .F. ) ;
#280 = EDGE_CURVE ( 'NONE', #57, #57, #160, .T. ) ;
#281 = SECURITY_CLASSIFICATION_LEVEL ( 'unclassified' ) ;
#282 = DIRECTION ( 'NONE',  ( -3.491481338843133355E-15, 1.224646799147353207E-16, -1.000000000000000000 ) ) ;
#283 = CIRCLE ( 'NONE', #106, 5.005000000000002558 ) ;
ENDSEC;
END-ISO-10303-21;
