ISO-10303-21;
HEADER;
FILE_DESCRIPTION (( 'STEP AP203' ),
    '1' );
FILE_NAME ('963737.step',
    '2021-12-02T08:19:44',
    ( '' ),
    ( '' ),
    'SwSTEP 2.0',
    'SolidWorks 2019',
    '' );
FILE_SCHEMA (( 'CONFIG_CONTROL_DESIGN' ));
ENDSEC;

DATA;
#1 = EDGE_LOOP ( 'NONE', ( #32 ) ) ;
#2 = AXIS2_PLACEMENT_3D ( 'NONE', #179, #94, #269 ) ;
#3 = ORIENTED_EDGE ( 'NONE', *, *, #137, .F. ) ;
#4 = PLANE ( 'NONE',  #279 ) ;
#5 = EDGE_CURVE ( 'NONE', #182, #182, #271, .T. ) ;
#6 = DIRECTION ( 'NONE',  ( 0.0000000000000000000, 1.000000000000000000, 0.0000000000000000000 ) ) ;
#7 = DIRECTION ( 'NONE',  ( 0.0000000000000000000, 1.000000000000000000, 0.0000000000000000000 ) ) ;
#8 = MANIFOLD_SOLID_BREP ( 'Corps-Déplacer/Copier1[2]', #274 ) ;
#9 = ADVANCED_FACE ( 'NONE', ( #67 ), #4, .F. ) ;
#10 = CARTESIAN_POINT ( 'NONE',  ( 6.633814543801952113E-14, 4.120590002863450192E-32, 19.00000000000000000 ) ) ;
#11 = AXIS2_PLACEMENT_3D ( 'NONE', #66, #25, #68 ) ;
#12 = CARTESIAN_POINT ( 'NONE',  ( 6.633814543801952113E-14, 5.494999999999997442, 19.00000000000000000 ) ) ;
#13 = ORGANIZATION ( 'UNSPECIFIED', 'UNSPECIFIED', '' ) ;
#14 = APPROVAL_STATUS ( 'not_yet_approved' ) ;
#15 = PERSON_AND_ORGANIZATION ( #236, #13 ) ;
#16 = PERSON_AND_ORGANIZATION ( #236, #13 ) ;
#17 = ORIENTED_EDGE ( 'NONE', *, *, #242, .T. ) ;
#18 = LOCAL_TIME ( 9, 19, 44.00000000000000000, #99 ) ;
#19 = UNCERTAINTY_MEASURE_WITH_UNIT (LENGTH_MEASURE( 1.000000000000000082E-05 ), #55, 'distance_accuracy_value', 'NONE');
#20 = DIRECTION ( 'NONE',  ( -3.491481338843133355E-15, 1.224646799147353207E-16, -1.000000000000000000 ) ) ;
#21 = EDGE_LOOP ( 'NONE', ( #282 ) ) ;
#22 = CARTESIAN_POINT ( 'NONE',  ( 4.922988687768816390E-13, -1.726751986797767482E-14, 140.9999999999999716 ) ) ;
#23 = AXIS2_PLACEMENT_3D ( 'NONE', #272, #115, #181 ) ;
#24 = DIRECTION ( 'NONE',  ( -3.491481338843133355E-15, 1.224646799147353207E-16, -1.000000000000000000 ) ) ;
#25 = DIRECTION ( 'NONE',  ( -3.491481338843133355E-15, 1.224646799147353207E-16, -1.000000000000000000 ) ) ;
#26 = DIRECTION ( 'NONE',  ( 0.0000000000000000000, 1.000000000000000000, 0.0000000000000000000 ) ) ;
#27 = CIRCLE ( 'NONE', #145, 5.095000000000002416 ) ;
#28 = CARTESIAN_POINT ( 'NONE',  ( 3.351822085289408021E-13, -1.214306433183764966E-14, 96.00000000000000000 ) ) ;
#29 = DIRECTION ( 'NONE',  ( -3.491481338843133355E-15, 1.224646799147353207E-16, -1.000000000000000000 ) ) ;
#30 = AXIS2_PLACEMENT_3D ( 'NONE', #138, #248, #26 ) ;
#31 = CARTESIAN_POINT ( 'NONE',  ( 0.0000000000000000000, 0.0000000000000000000, 0.0000000000000000000 ) ) ;
#32 = ORIENTED_EDGE ( 'NONE', *, *, #231, .T. ) ;
#33 =( NAMED_UNIT ( * ) PLANE_ANGLE_UNIT ( ) SI_UNIT ( $, .RADIAN. ) );
#34 = CARTESIAN_POINT ( 'NONE',  ( 6.633814543801952113E-14, 5.494999999999997442, 19.00000000000000000 ) ) ;
#35 = PERSON_AND_ORGANIZATION_ROLE ( 'creator' ) ;
#36 = EDGE_LOOP ( 'NONE', ( #217 ) ) ;
#37 = DIRECTION ( 'NONE',  ( 0.0000000000000000000, 0.0000000000000000000, 1.000000000000000000 ) ) ;
#38 = ADVANCED_BREP_SHAPE_REPRESENTATION ( '963737', ( #199, #8, #168 ), #180 ) ;
#39 = CYLINDRICAL_SURFACE ( 'NONE', #117, 5.999999999999998224 ) ;
#40 = DESIGN_CONTEXT ( 'detailed design', #54, 'design' ) ;
#41 = FACE_OUTER_BOUND ( 'NONE', #125, .T. ) ;
#42 = DIRECTION ( 'NONE',  ( 4.275831445896958607E-31, 1.000000000000000000, 1.224646799147353207E-16 ) ) ;
#43 = EDGE_LOOP ( 'NONE', ( #62 ) ) ;
#44 = CIRCLE ( 'NONE', #77, 6.000000000000000888 ) ;
#45 = CC_DESIGN_APPROVAL ( #91, ( #195 ) ) ;
#46 = DATE_AND_TIME ( #170, #213 ) ;
#47 = CARTESIAN_POINT ( 'NONE',  ( 6.633814543801952113E-14, -2.326828918379970970E-15, 19.00000000000000000 ) ) ;
#48 = DIRECTION ( 'NONE',  ( -3.491481338843133355E-15, 1.224646799147353207E-16, -1.000000000000000000 ) ) ;
#49 = FACE_OUTER_BOUND ( 'NONE', #229, .T. ) ;
#50 = CONICAL_SURFACE ( 'NONE', #11, 5.000000000000000888, 0.7853981633974339571 ) ;
#51 = CARTESIAN_POINT ( 'NONE',  ( 6.633814543801952113E-14, -2.326828918379970970E-15, 19.00000000000000000 ) ) ;
#52 = DIRECTION ( 'NONE',  ( -3.491481338843133355E-15, 1.224646799147353207E-16, -1.000000000000000000 ) ) ;
#53 = EDGE_CURVE ( 'NONE', #155, #155, #158, .T. ) ;
#54 = APPLICATION_CONTEXT ( 'configuration controlled 3d designs of mechanical parts and assemblies' ) ;
#55 =( LENGTH_UNIT ( ) NAMED_UNIT ( * ) SI_UNIT ( .MILLI., .METRE. ) );
#56 = LOCAL_TIME ( 9, 19, 44.00000000000000000, #165 ) ;
#57 = EDGE_LOOP ( 'NONE', ( #276 ) ) ;
#58 = CARTESIAN_POINT ( 'NONE',  ( 3.028377322213058170E-30, 5.095000000000002416, 8.673617379884035472E-16 ) ) ;
#59 = PERSON_AND_ORGANIZATION ( #236, #13 ) ;
#60 = DATE_AND_TIME ( #258, #93 ) ;
#61 = CONICAL_SURFACE ( 'NONE', #121, 5.494999999999997442, 0.7853981633974430610 ) ;
#62 = ORIENTED_EDGE ( 'NONE', *, *, #104, .F. ) ;
#63 = CC_DESIGN_PERSON_AND_ORGANIZATION_ASSIGNMENT ( #143, #119, ( #260 ) ) ;
#64 = SHAPE_DEFINITION_REPRESENTATION ( #250, #38 ) ;
#65 = ORIENTED_EDGE ( 'NONE', *, *, #84, .F. ) ;
#66 = CARTESIAN_POINT ( 'NONE',  ( 4.957903501157248607E-13, -1.738998454789241313E-14, 142.0000000000000000 ) ) ;
#67 = FACE_OUTER_BOUND ( 'NONE', #149, .T. ) ;
#68 = DIRECTION ( 'NONE',  ( 0.0000000000000000000, 1.000000000000000000, 0.0000000000000000000 ) ) ;
#69 = DIRECTION ( 'NONE',  ( -4.275831445896958607E-31, -1.000000000000000000, -1.224646799147353207E-16 ) ) ;
#70 = AXIS2_PLACEMENT_3D ( 'NONE', #176, #266, #265 ) ;
#71 = CC_DESIGN_APPROVAL ( #245, ( #154 ) ) ;
#72 = FACE_BOUND ( 'NONE', #262, .T. ) ;
#73 = ADVANCED_FACE ( 'NONE', ( #134, #237 ), #39, .T. ) ;
#74 = FACE_OUTER_BOUND ( 'NONE', #244, .T. ) ;
#75 = CC_DESIGN_DATE_AND_TIME_ASSIGNMENT ( #46, #263, ( #154 ) ) ;
#76 = FACE_OUTER_BOUND ( 'NONE', #147, .T. ) ;
#77 = AXIS2_PLACEMENT_3D ( 'NONE', #22, #24, #111 ) ;
#78 = CARTESIAN_POINT ( 'NONE',  ( 3.351822085289408021E-13, -1.175660927181459158E-14, 96.00000000000000000 ) ) ;
#79 = FACE_OUTER_BOUND ( 'NONE', #112, .T. ) ;
#80 = APPLICATION_PROTOCOL_DEFINITION ( 'international standard', 'config_control_design', 1994, #54 ) ;
#81 = CARTESIAN_POINT ( 'NONE',  ( 1.396592535537253737E-15, 5.494999999999997442, 0.4000000000000000777 ) ) ;
#82 = DATE_AND_TIME ( #232, #56 ) ;
#83 = APPROVAL_PERSON_ORGANIZATION ( #59, #257, #188 ) ;
#84 = EDGE_CURVE ( 'NONE', #191, #191, #219, .T. ) ;
#85 = CC_DESIGN_PERSON_AND_ORGANIZATION_ASSIGNMENT ( #16, #240, ( #207 ) ) ;
#86 = FACE_OUTER_BOUND ( 'NONE', #105, .T. ) ;
#87 = DIRECTION ( 'NONE',  ( 0.0000000000000000000, 1.000000000000000000, 0.0000000000000000000 ) ) ;
#88 = EDGE_LOOP ( 'NONE', ( #65 ) ) ;
#89 = CARTESIAN_POINT ( 'NONE',  ( 1.396592535537251370E-15, -4.898587196589405680E-17, 0.3999999999999994116 ) ) ;
#90 = DIRECTION ( 'NONE',  ( 4.205852471819261235E-31, 1.000000000000000000, 1.183842226553781527E-16 ) ) ;
#91 = APPROVAL ( #14, 'UNSPECIFIED' ) ;
#92 = AXIS2_PLACEMENT_3D ( 'NONE', #171, #48, #90 ) ;
#93 = LOCAL_TIME ( 9, 19, 44.00000000000000000, #166 ) ;
#94 = DIRECTION ( 'NONE',  ( 3.491481338843133355E-15, -1.224646799147353207E-16, 1.000000000000000000 ) ) ;
#95 = FACE_OUTER_BOUND ( 'NONE', #192, .T. ) ;
#96 = CIRCLE ( 'NONE', #249, 4.750000000000001776 ) ;
#97 = FACE_OUTER_BOUND ( 'NONE', #21, .T. ) ;
#98 = VERTEX_POINT ( 'NONE', #123 ) ;
#99 = COORDINATED_UNIVERSAL_TIME_OFFSET ( 1, 0, .AHEAD. ) ;
#100 = DATE_TIME_ROLE ( 'creation_date' ) ;
#101 = EDGE_LOOP ( 'NONE', ( #172 ) ) ;
#102 = CC_DESIGN_PERSON_AND_ORGANIZATION_ASSIGNMENT ( #173, #281, ( #154 ) ) ;
#103 = VERTEX_POINT ( 'NONE', #58 ) ;
#104 = EDGE_CURVE ( 'NONE', #103, #103, #27, .T. ) ;
#105 = EDGE_LOOP ( 'NONE', ( #142 ) ) ;
#106 = COORDINATED_UNIVERSAL_TIME_OFFSET ( 1, 0, .AHEAD. ) ;
#107 = ORIENTED_EDGE ( 'NONE', *, *, #231, .F. ) ;
#108 = PERSON_AND_ORGANIZATION ( #236, #13 ) ;
#109 = APPROVAL_STATUS ( 'not_yet_approved' ) ;
#110 = DIRECTION ( 'NONE',  ( -3.491481338843133355E-15, 1.224646799147353207E-16, -1.000000000000000000 ) ) ;
#111 = DIRECTION ( 'NONE',  ( 0.0000000000000000000, 1.000000000000000000, 0.0000000000000000000 ) ) ;
#112 = EDGE_LOOP ( 'NONE', ( #17 ) ) ;
#113 = ORIENTED_EDGE ( 'NONE', *, *, #5, .F. ) ;
#114 = ADVANCED_FACE ( 'NONE', ( #86, #264 ), #50, .T. ) ;
#115 = DIRECTION ( 'NONE',  ( -3.491481338843133355E-15, 1.224646799147353207E-16, -1.000000000000000000 ) ) ;
#116 = FACE_OUTER_BOUND ( 'NONE', #197, .T. ) ;
#117 = AXIS2_PLACEMENT_3D ( 'NONE', #175, #222, #283 ) ;
#118 = DIRECTION ( 'NONE',  ( 0.0000000000000000000, 1.000000000000000000, 0.0000000000000000000 ) ) ;
#119 = PERSON_AND_ORGANIZATION_ROLE ( 'design_owner' ) ;
#120 = ADVANCED_FACE ( 'NONE', ( #41 ), #148, .F. ) ;
#121 = AXIS2_PLACEMENT_3D ( 'NONE', #89, #177, #201 ) ;
#122 = DIRECTION ( 'NONE',  ( 1.000000000000000000, 0.0000000000000000000, 0.0000000000000000000 ) ) ;
#123 = CARTESIAN_POINT ( 'NONE',  ( 4.922988687768816390E-13, 5.999999999999984013, 140.9999999999999716 ) ) ;
#124 = EDGE_CURVE ( 'NONE', #98, #98, #44, .T. ) ;
#125 = EDGE_LOOP ( 'NONE', ( #241 ) ) ;
#126 = AXIS2_PLACEMENT_3D ( 'NONE', #31, #29, #247 ) ;
#127 = ORIENTED_EDGE ( 'NONE', *, *, #104, .T. ) ;
#128 = CARTESIAN_POINT ( 'NONE',  ( 4.957903501157248607E-13, 3.749399456654618840E-32, 142.0000000000000000 ) ) ;
#129 = CALENDAR_DATE ( 2021, 2, 12 ) ;
#130 = DIRECTION ( 'NONE',  ( -3.491481338843133355E-15, 1.224646799147353207E-16, -1.000000000000000000 ) ) ;
#131 = FACE_OUTER_BOUND ( 'NONE', #36, .T. ) ;
#132 = APPROVAL_PERSON_ORGANIZATION ( #164, #91, #162 ) ;
#133 = ADVANCED_FACE ( 'NONE', ( #198, #131 ), #61, .T. ) ;
#134 = FACE_OUTER_BOUND ( 'NONE', #88, .T. ) ;
#135 = DIRECTION ( 'NONE',  ( 3.491481338843133355E-15, -1.224646799147353207E-16, 1.000000000000000000 ) ) ;
#136 = AXIS2_PLACEMENT_3D ( 'NONE', #196, #110, #87 ) ;
#137 = EDGE_CURVE ( 'NONE', #185, #185, #238, .T. ) ;
#138 = CARTESIAN_POINT ( 'NONE',  ( 7.084347562707305937E-14, -2.484854628949986388E-15, 20.29037785163884777 ) ) ;
#139 = AXIS2_PLACEMENT_3D ( 'NONE', #28, #183, #159 ) ;
#140 = ADVANCED_FACE ( 'NONE', ( #116 ), #208, .T. ) ;
#141 = CARTESIAN_POINT ( 'NONE',  ( 0.0000000000000000000, 0.0000000000000000000, 0.0000000000000000000 ) ) ;
#142 = ORIENTED_EDGE ( 'NONE', *, *, #124, .F. ) ;
#143 = PERSON_AND_ORGANIZATION ( #236, #13 ) ;
#144 = APPLICATION_CONTEXT ( 'configuration controlled 3d designs of mechanical parts and assemblies' ) ;
#145 = AXIS2_PLACEMENT_3D ( 'NONE', #214, #20, #42 ) ;
#146 = PERSON_AND_ORGANIZATION ( #236, #13 ) ;
#147 = EDGE_LOOP ( 'NONE', ( #3 ) ) ;
#148 = PLANE ( 'NONE',  #167 ) ;
#149 = EDGE_LOOP ( 'NONE', ( #127 ) ) ;
#150 = DIRECTION ( 'NONE',  ( 4.275831445896958607E-31, 1.000000000000000000, 1.224646799147353207E-16 ) ) ;
#151 = ADVANCED_FACE ( 'NONE', ( #76, #97 ), #223, .T. ) ;
#152 = COORDINATED_UNIVERSAL_TIME_OFFSET ( 1, 0, .AHEAD. ) ;
#153 = ORIENTED_EDGE ( 'NONE', *, *, #242, .F. ) ;
#154 = SECURITY_CLASSIFICATION ( '', '', #243 ) ;
#155 = VERTEX_POINT ( 'NONE', #246 ) ;
#156 = CYLINDRICAL_SURFACE ( 'NONE', #23, 4.749999999999995559 ) ;
#157 = ADVANCED_FACE ( 'NONE', ( #74, #79 ), #156, .T. ) ;
#158 = CIRCLE ( 'NONE', #136, 5.000000000000000888 ) ;
#159 = DIRECTION ( 'NONE',  ( 4.275831445896958607E-31, 1.000000000000000000, 1.224646799147353207E-16 ) ) ;
#160 = CARTESIAN_POINT ( 'NONE',  ( 7.084347562707305937E-14, -2.484854628949986388E-15, 20.29037785163884777 ) ) ;
#161 = EDGE_CURVE ( 'NONE', #212, #212, #163, .T. ) ;
#162 = APPROVAL_ROLE ( '' ) ;
#163 = CIRCLE ( 'NONE', #30, 4.749999999999990230 ) ;
#164 = PERSON_AND_ORGANIZATION ( #236, #13 ) ;
#165 = COORDINATED_UNIVERSAL_TIME_OFFSET ( 1, 0, .AHEAD. ) ;
#166 = COORDINATED_UNIVERSAL_TIME_OFFSET ( 1, 0, .AHEAD. ) ;
#167 = AXIS2_PLACEMENT_3D ( 'NONE', #128, #130, #150 ) ;
#168 = AXIS2_PLACEMENT_3D ( 'NONE', #141, #37, #122 ) ;
#169 = MECHANICAL_CONTEXT ( 'NONE', #144, 'mechanical' ) ;
#170 = CALENDAR_DATE ( 2021, 2, 12 ) ;
#171 = CARTESIAN_POINT ( 'NONE',  ( 1.396592535537251370E-15, -4.898587196589405680E-17, 0.3999999999999994116 ) ) ;
#172 = ORIENTED_EDGE ( 'NONE', *, *, #84, .T. ) ;
#173 = PERSON_AND_ORGANIZATION ( #236, #13 ) ;
#174 = CIRCLE ( 'NONE', #203, 5.495000000000000107 ) ;
#175 = CARTESIAN_POINT ( 'NONE',  ( 0.0000000000000000000, 0.0000000000000000000, 0.0000000000000000000 ) ) ;
#176 = CARTESIAN_POINT ( 'NONE',  ( 3.416555881846535738E-13, -1.198366486529116725E-14, 97.85404962177391042 ) ) ;
#177 = DIRECTION ( 'NONE',  ( 3.491481338843133355E-15, -1.224646799147353207E-16, 1.000000000000000000 ) ) ;
#178 = ADVANCED_FACE ( 'NONE', ( #49, #72 ), #268, .T. ) ;
#179 = CARTESIAN_POINT ( 'NONE',  ( 6.633814543801952113E-14, 4.120590002863450192E-32, 19.00000000000000000 ) ) ;
#180 =( GEOMETRIC_REPRESENTATION_CONTEXT ( 3 ) GLOBAL_UNCERTAINTY_ASSIGNED_CONTEXT ( ( #19 ) ) GLOBAL_UNIT_ASSIGNED_CONTEXT ( ( #55, #33, #186 ) ) REPRESENTATION_CONTEXT ( 'NONE', 'WORKASPACE' ) );
#181 = DIRECTION ( 'NONE',  ( 4.275831445896958607E-31, 1.000000000000000000, 1.224646799147353207E-16 ) ) ;
#182 = VERTEX_POINT ( 'NONE', #12 ) ;
#183 = DIRECTION ( 'NONE',  ( -3.491481338843133355E-15, 1.224646799147353207E-16, -1.000000000000000000 ) ) ;
#184 = TOROIDAL_SURFACE ( 'NONE', #139, 6.750000000000001776, 1.999999999999997113 ) ;
#185 = VERTEX_POINT ( 'NONE', #81 ) ;
#186 =( NAMED_UNIT ( * ) SI_UNIT ( $, .STERADIAN. ) SOLID_ANGLE_UNIT ( ) );
#187 = AXIS2_PLACEMENT_3D ( 'NONE', #47, #220, #6 ) ;
#188 = APPROVAL_ROLE ( '' ) ;
#189 = ORIENTED_EDGE ( 'NONE', *, *, #161, .T. ) ;
#190 = APPROVAL_DATE_TIME ( #230, #91 ) ;
#191 = VERTEX_POINT ( 'NONE', #255 ) ;
#192 = EDGE_LOOP ( 'NONE', ( #153 ) ) ;
#193 = CLOSED_SHELL ( 'NONE', ( #254, #178, #157, #227, #73, #114, #120 ) ) ;
#194 = APPROVAL_PERSON_ORGANIZATION ( #108, #245, #261 ) ;
#195 = PRODUCT_DEFINITION ( 'UNKNOWN', '', #207, #40 ) ;
#196 = CARTESIAN_POINT ( 'NONE',  ( 4.957903501157248607E-13, -1.738998454789241313E-14, 142.0000000000000000 ) ) ;
#197 = EDGE_LOOP ( 'NONE', ( #113 ) ) ;
#198 = FACE_BOUND ( 'NONE', #43, .T. ) ;
#199 = MANIFOLD_SOLID_BREP ( 'Corps-Déplacer/Copier1[1]', #193 ) ;
#200 = EDGE_LOOP ( 'NONE', ( #215 ) ) ;
#201 = DIRECTION ( 'NONE',  ( -4.205852471819261235E-31, -1.000000000000000000, -1.183842226553781527E-16 ) ) ;
#202 = DIRECTION ( 'NONE',  ( -3.491481338843133355E-15, 1.224646799147353207E-16, -1.000000000000000000 ) ) ;
#203 = AXIS2_PLACEMENT_3D ( 'NONE', #51, #270, #7 ) ;
#204 = DIRECTION ( 'NONE',  ( 0.0000000000000000000, 1.000000000000000000, 0.0000000000000000000 ) ) ;
#205 = CC_DESIGN_PERSON_AND_ORGANIZATION_ASSIGNMENT ( #146, #35, ( #207 ) ) ;
#206 = FACE_OUTER_BOUND ( 'NONE', #1, .T. ) ;
#207 = PRODUCT_DEFINITION_FORMATION_WITH_SPECIFIED_SOURCE ( 'ANY', '', #260, .NOT_KNOWN. ) ;
#208 = PLANE ( 'NONE',  #234 ) ;
#209 = CALENDAR_DATE ( 2021, 2, 12 ) ;
#210 = AXIS2_PLACEMENT_3D ( 'NONE', #160, #202, #118 ) ;
#211 = CARTESIAN_POINT ( 'NONE',  ( 7.084347562707305937E-14, 4.749999999999987566, 20.29037785163884777 ) ) ;
#212 = VERTEX_POINT ( 'NONE', #211 ) ;
#213 = LOCAL_TIME ( 9, 19, 44.00000000000000000, #106 ) ;
#214 = CARTESIAN_POINT ( 'NONE',  ( 8.498412005285570342E-31, -2.980841668641668441E-32, 2.434041938228268058E-16 ) ) ;
#215 = ORIENTED_EDGE ( 'NONE', *, *, #124, .T. ) ;
#216 = APPROVAL_DATE_TIME ( #218, #245 ) ;
#217 = ORIENTED_EDGE ( 'NONE', *, *, #137, .T. ) ;
#218 = DATE_AND_TIME ( #129, #253 ) ;
#219 = CIRCLE ( 'NONE', #70, 5.999999999999994671 ) ;
#220 = DIRECTION ( 'NONE',  ( -3.491481338843133355E-15, 1.224646799147353207E-16, -1.000000000000000000 ) ) ;
#221 = CC_DESIGN_DATE_AND_TIME_ASSIGNMENT ( #82, #100, ( #195 ) ) ;
#222 = DIRECTION ( 'NONE',  ( -3.491481338843133355E-15, 1.224646799147353207E-16, -1.000000000000000000 ) ) ;
#223 = CYLINDRICAL_SURFACE ( 'NONE', #126, 5.494999999999998330 ) ;
#224 = CC_DESIGN_PERSON_AND_ORGANIZATION_ASSIGNMENT ( #15, #252, ( #195 ) ) ;
#225 = PLANE ( 'NONE',  #2 ) ;
#226 = DIRECTION ( 'NONE',  ( -4.275831445896958607E-31, -1.000000000000000000, -1.224646799147353207E-16 ) ) ;
#227 = ADVANCED_FACE ( 'NONE', ( #95, #251 ), #184, .F. ) ;
#228 = CC_DESIGN_SECURITY_CLASSIFICATION ( #154, ( #207 ) ) ;
#229 = EDGE_LOOP ( 'NONE', ( #107 ) ) ;
#230 = DATE_AND_TIME ( #209, #18 ) ;
#231 = EDGE_CURVE ( 'NONE', #278, #278, #174, .T. ) ;
#232 = CALENDAR_DATE ( 2021, 2, 12 ) ;
#233 = PRODUCT_RELATED_PRODUCT_CATEGORY ( 'detail', '', ( #260 ) ) ;
#234 = AXIS2_PLACEMENT_3D ( 'NONE', #10, #135, #226 ) ;
#235 = ORIENTED_EDGE ( 'NONE', *, *, #161, .F. ) ;
#236 = PERSON ( 'UNSPECIFIED', 'UNSPECIFIED', 'UNSPECIFIED', ('UNSPECIFIED'), ('UNSPECIFIED'), ('UNSPECIFIED') ) ;
#237 = FACE_OUTER_BOUND ( 'NONE', #200, .T. ) ;
#238 = CIRCLE ( 'NONE', #92, 5.494999999999997442 ) ;
#239 = DIRECTION ( 'NONE',  ( 3.491481338843133355E-15, -1.224646799147353207E-16, 1.000000000000000000 ) ) ;
#240 = PERSON_AND_ORGANIZATION_ROLE ( 'design_supplier' ) ;
#241 = ORIENTED_EDGE ( 'NONE', *, *, #53, .F. ) ;
#242 = EDGE_CURVE ( 'NONE', #275, #275, #96, .T. ) ;
#243 = SECURITY_CLASSIFICATION_LEVEL ( 'unclassified' ) ;
#244 = EDGE_LOOP ( 'NONE', ( #235 ) ) ;
#245 = APPROVAL ( #109, 'UNSPECIFIED' ) ;
#246 = CARTESIAN_POINT ( 'NONE',  ( 4.957903501157248607E-13, 4.999999999999984013, 142.0000000000000000 ) ) ;
#247 = DIRECTION ( 'NONE',  ( 4.275831445896957731E-31, 1.000000000000000000, 1.224646799147353207E-16 ) ) ;
#248 = DIRECTION ( 'NONE',  ( -3.491481338843133355E-15, 1.224646799147353207E-16, -1.000000000000000000 ) ) ;
#249 = AXIS2_PLACEMENT_3D ( 'NONE', #78, #52, #204 ) ;
#250 = PRODUCT_DEFINITION_SHAPE ( 'NONE', 'NONE',  #195 ) ;
#251 = FACE_OUTER_BOUND ( 'NONE', #101, .T. ) ;
#252 = PERSON_AND_ORGANIZATION_ROLE ( 'creator' ) ;
#253 = LOCAL_TIME ( 9, 19, 44.00000000000000000, #152 ) ;
#254 = ADVANCED_FACE ( 'NONE', ( #206 ), #225, .F. ) ;
#255 = CARTESIAN_POINT ( 'NONE',  ( 3.416555881846535738E-13, 5.999999999999983125, 97.85404962177391042 ) ) ;
#256 = APPLICATION_PROTOCOL_DEFINITION ( 'international standard', 'config_control_design', 1994, #144 ) ;
#257 = APPROVAL ( #277, 'UNSPECIFIED' ) ;
#258 = CALENDAR_DATE ( 2021, 2, 12 ) ;
#259 = APPROVAL_DATE_TIME ( #60, #257 ) ;
#260 = PRODUCT ( '963737', '963737', '', ( #169 ) ) ;
#261 = APPROVAL_ROLE ( '' ) ;
#262 = EDGE_LOOP ( 'NONE', ( #189 ) ) ;
#263 = DATE_TIME_ROLE ( 'classification_date' ) ;
#264 = FACE_BOUND ( 'NONE', #57, .T. ) ;
#265 = DIRECTION ( 'NONE',  ( 0.0000000000000000000, 1.000000000000000000, 0.0000000000000000000 ) ) ;
#266 = DIRECTION ( 'NONE',  ( -3.491481338843133355E-15, 1.224646799147353207E-16, -1.000000000000000000 ) ) ;
#267 = CARTESIAN_POINT ( 'NONE',  ( 4.249206002642785171E-31, -1.490420834320834221E-32, 1.217020969114134029E-16 ) ) ;
#268 = CONICAL_SURFACE ( 'NONE', #210, 4.749999999999990230, 0.5235987755982927094 ) ;
#269 = DIRECTION ( 'NONE',  ( -4.275831445896958607E-31, -1.000000000000000000, -1.224646799147353207E-16 ) ) ;
#270 = DIRECTION ( 'NONE',  ( -3.491481338843133355E-15, 1.224646799147353207E-16, -1.000000000000000000 ) ) ;
#271 = CIRCLE ( 'NONE', #187, 5.495000000000000107 ) ;
#272 = CARTESIAN_POINT ( 'NONE',  ( 0.0000000000000000000, 0.0000000000000000000, 0.0000000000000000000 ) ) ;
#273 = CARTESIAN_POINT ( 'NONE',  ( 3.351822085289408021E-13, 4.749999999999989342, 96.00000000000000000 ) ) ;
#274 = CLOSED_SHELL ( 'NONE', ( #9, #133, #151, #140 ) ) ;
#275 = VERTEX_POINT ( 'NONE', #273 ) ;
#276 = ORIENTED_EDGE ( 'NONE', *, *, #53, .T. ) ;
#277 = APPROVAL_STATUS ( 'not_yet_approved' ) ;
#278 = VERTEX_POINT ( 'NONE', #34 ) ;
#279 = AXIS2_PLACEMENT_3D ( 'NONE', #267, #239, #69 ) ;
#280 = CC_DESIGN_APPROVAL ( #257, ( #207 ) ) ;
#281 = PERSON_AND_ORGANIZATION_ROLE ( 'classification_officer' ) ;
#282 = ORIENTED_EDGE ( 'NONE', *, *, #5, .T. ) ;
#283 = DIRECTION ( 'NONE',  ( 4.275831445896958607E-31, 1.000000000000000000, 1.224646799147353207E-16 ) ) ;
ENDSEC;
END-ISO-10303-21;
