ISO-10303-21;
HEADER;
FILE_DESCRIPTION (( 'STEP AP203' ),
    '1' );
FILE_NAME ('963736.step',
    '2021-12-02T08:19:43',
    ( '' ),
    ( '' ),
    'SwSTEP 2.0',
    'SolidWorks 2019',
    '' );
FILE_SCHEMA (( 'CONFIG_CONTROL_DESIGN' ));
ENDSEC;

DATA;
#1 = PERSON_AND_ORGANIZATION_ROLE ( 'design_supplier' ) ;
#2 = DIRECTION ( 'NONE',  ( 0.0000000000000000000, 1.000000000000000000, 0.0000000000000000000 ) ) ;
#3 = AXIS2_PLACEMENT_3D ( 'NONE', #199, #7, #170 ) ;
#4 = LOCAL_TIME ( 9, 19, 43.00000000000000000, #104 ) ;
#5 = ADVANCED_FACE ( 'NONE', ( #112, #25 ), #28, .T. ) ;
#6 = ORIENTED_EDGE ( 'NONE', *, *, #177, .F. ) ;
#7 = DIRECTION ( 'NONE',  ( -3.491481338843133355E-15, 1.224646799147353207E-16, -1.000000000000000000 ) ) ;
#8 = MANIFOLD_SOLID_BREP ( 'Corps-Déplacer/Copier1[1]', #205 ) ;
#9 = FACE_OUTER_BOUND ( 'NONE', #239, .T. ) ;
#10 = PRODUCT_DEFINITION_FORMATION_WITH_SPECIFIED_SOURCE ( 'ANY', '', #211, .NOT_KNOWN. ) ;
#11 = CARTESIAN_POINT ( 'NONE',  ( 7.081323851171029064E-14, -2.483794053711260950E-15, 20.28171759760100201 ) ) ;
#12 = PRODUCT_RELATED_PRODUCT_CATEGORY ( 'detail', '', ( #211 ) ) ;
#13 = FACE_OUTER_BOUND ( 'NONE', #151, .T. ) ;
#14 = DIRECTION ( 'NONE',  ( 0.0000000000000000000, 1.000000000000000000, 0.0000000000000000000 ) ) ;
#15 = DIRECTION ( 'NONE',  ( 0.0000000000000000000, 0.0000000000000000000, 1.000000000000000000 ) ) ;
#16 = APPLICATION_PROTOCOL_DEFINITION ( 'international standard', 'config_control_design', 1994, #240 ) ;
#17 = APPROVAL_ROLE ( '' ) ;
#18 = UNCERTAINTY_MEASURE_WITH_UNIT (LENGTH_MEASURE( 1.000000000000000082E-05 ), #81, 'distance_accuracy_value', 'NONE');
#19 = EDGE_LOOP ( 'NONE', ( #58 ) ) ;
#20 = AXIS2_PLACEMENT_3D ( 'NONE', #230, #76, #77 ) ;
#21 = EDGE_LOOP ( 'NONE', ( #144 ) ) ;
#22 = DIRECTION ( 'NONE',  ( -3.491481338843133355E-15, 1.224646799147353207E-16, -1.000000000000000000 ) ) ;
#23 = DIRECTION ( 'NONE',  ( -4.209682938551337299E-31, -1.000000000000000000, -1.184920407087983579E-16 ) ) ;
#24 = AXIS2_PLACEMENT_3D ( 'NONE', #162, #15, #273 ) ;
#25 = FACE_OUTER_BOUND ( 'NONE', #138, .T. ) ;
#26 = DIRECTION ( 'NONE',  ( 3.491481338843133355E-15, -1.224646799147353207E-16, 1.000000000000000000 ) ) ;
#27 = CARTESIAN_POINT ( 'NONE',  ( 3.351822085289408021E-13, -1.175660927181459158E-14, 96.00000000000000000 ) ) ;
#28 = CONICAL_SURFACE ( 'NONE', #184, 5.489999999999997549, 0.7853981633974430610 ) ;
#29 = LOCAL_TIME ( 9, 19, 43.00000000000000000, #224 ) ;
#30 = CARTESIAN_POINT ( 'NONE',  ( 0.0000000000000000000, 0.0000000000000000000, 0.0000000000000000000 ) ) ;
#31 = DIRECTION ( 'NONE',  ( -3.491481338843133355E-15, 1.224646799147353207E-16, -1.000000000000000000 ) ) ;
#32 = CIRCLE ( 'NONE', #206, 5.489999999999997549 ) ;
#33 = DIRECTION ( 'NONE',  ( 0.0000000000000000000, 1.000000000000000000, 0.0000000000000000000 ) ) ;
#34 = CARTESIAN_POINT ( 'NONE',  ( 1.396592535537253934E-15, 5.489999999999997549, 0.4000000000000001332 ) ) ;
#35 =( NAMED_UNIT ( * ) PLANE_ANGLE_UNIT ( ) SI_UNIT ( $, .RADIAN. ) );
#36 = ORIENTED_EDGE ( 'NONE', *, *, #264, .T. ) ;
#37 = CC_DESIGN_PERSON_AND_ORGANIZATION_ASSIGNMENT ( #84, #183, ( #211 ) ) ;
#38 = PERSON_AND_ORGANIZATION ( #54, #123 ) ;
#39 = AXIS2_PLACEMENT_3D ( 'NONE', #129, #265, #48 ) ;
#40 = APPROVAL_PERSON_ORGANIZATION ( #127, #130, #241 ) ;
#41 = APPROVAL_ROLE ( '' ) ;
#42 = ADVANCED_FACE ( 'NONE', ( #9, #194 ), #139, .F. ) ;
#43 = CARTESIAN_POINT ( 'NONE',  ( 4.957903501157248607E-13, -1.738998454789241313E-14, 142.0000000000000000 ) ) ;
#44 = ORIENTED_EDGE ( 'NONE', *, *, #82, .F. ) ;
#45 = DIRECTION ( 'NONE',  ( -3.491481338843133355E-15, 1.224646799147353207E-16, -1.000000000000000000 ) ) ;
#46 = ADVANCED_FACE ( 'NONE', ( #70 ), #227, .T. ) ;
#47 = COORDINATED_UNIVERSAL_TIME_OFFSET ( 1, 0, .AHEAD. ) ;
#48 = DIRECTION ( 'NONE',  ( 0.0000000000000000000, 1.000000000000000000, 0.0000000000000000000 ) ) ;
#49 = ORIENTED_EDGE ( 'NONE', *, *, #82, .T. ) ;
#50 = FACE_OUTER_BOUND ( 'NONE', #21, .T. ) ;
#51 = FACE_OUTER_BOUND ( 'NONE', #263, .T. ) ;
#52 = CIRCLE ( 'NONE', #181, 5.090000000000002522 ) ;
#53 = FACE_OUTER_BOUND ( 'NONE', #259, .T. ) ;
#54 = PERSON ( 'UNSPECIFIED', 'UNSPECIFIED', 'UNSPECIFIED', ('UNSPECIFIED'), ('UNSPECIFIED'), ('UNSPECIFIED') ) ;
#55 = CARTESIAN_POINT ( 'NONE',  ( 6.633814543801952113E-14, -2.326828918379970970E-15, 19.00000000000000000 ) ) ;
#56 = VERTEX_POINT ( 'NONE', #233 ) ;
#57 = CARTESIAN_POINT ( 'NONE',  ( 6.633814543801952113E-14, 5.489999999999997549, 19.00000000000000000 ) ) ;
#58 = ORIENTED_EDGE ( 'NONE', *, *, #89, .F. ) ;
#59 = CARTESIAN_POINT ( 'NONE',  ( 3.351822085289408021E-13, 4.749999999999989342, 96.00000000000000000 ) ) ;
#60 = CONICAL_SURFACE ( 'NONE', #266, 5.000000000000000888, 0.7853981633974339571 ) ;
#61 = EDGE_LOOP ( 'NONE', ( #173 ) ) ;
#62 =( NAMED_UNIT ( * ) SI_UNIT ( $, .STERADIAN. ) SOLID_ANGLE_UNIT ( ) );
#63 = ORIENTED_EDGE ( 'NONE', *, *, #125, .F. ) ;
#64 = ADVANCED_BREP_SHAPE_REPRESENTATION ( '963736', ( #8, #192, #24 ), #171 ) ;
#65 = PERSON_AND_ORGANIZATION ( #54, #123 ) ;
#66 = DIRECTION ( 'NONE',  ( 3.491481338843133355E-15, -1.224646799147353207E-16, 1.000000000000000000 ) ) ;
#67 = ORIENTED_EDGE ( 'NONE', *, *, #272, .T. ) ;
#68 = SECURITY_CLASSIFICATION_LEVEL ( 'unclassified' ) ;
#69 = FACE_OUTER_BOUND ( 'NONE', #19, .T. ) ;
#70 = FACE_OUTER_BOUND ( 'NONE', #200, .T. ) ;
#71 = PERSON_AND_ORGANIZATION_ROLE ( 'classification_officer' ) ;
#72 = ORIENTED_EDGE ( 'NONE', *, *, #125, .T. ) ;
#73 = AXIS2_PLACEMENT_3D ( 'NONE', #146, #93, #169 ) ;
#74 = LOCAL_TIME ( 9, 19, 43.00000000000000000, #85 ) ;
#75 = CARTESIAN_POINT ( 'NONE',  ( 4.922988687768816390E-13, 5.999999999999984013, 140.9999999999999716 ) ) ;
#76 = DIRECTION ( 'NONE',  ( -3.491481338843133355E-15, 1.224646799147353207E-16, -1.000000000000000000 ) ) ;
#77 = DIRECTION ( 'NONE',  ( 4.275831445896958607E-31, 1.000000000000000000, 1.224646799147353207E-16 ) ) ;
#78 = CIRCLE ( 'NONE', #249, 5.999999999999994671 ) ;
#79 = DIRECTION ( 'NONE',  ( 4.209682938551337299E-31, 1.000000000000000000, 1.184920407087983579E-16 ) ) ;
#80 = DIRECTION ( 'NONE',  ( 0.0000000000000000000, 1.000000000000000000, 0.0000000000000000000 ) ) ;
#81 =( LENGTH_UNIT ( ) NAMED_UNIT ( * ) SI_UNIT ( .MILLI., .METRE. ) );
#82 = EDGE_CURVE ( 'NONE', #203, #203, #52, .T. ) ;
#83 = CALENDAR_DATE ( 2021, 2, 12 ) ;
#84 = PERSON_AND_ORGANIZATION ( #54, #123 ) ;
#85 = COORDINATED_UNIVERSAL_TIME_OFFSET ( 1, 0, .AHEAD. ) ;
#86 = APPROVAL_PERSON_ORGANIZATION ( #274, #196, #17 ) ;
#87 = DATE_AND_TIME ( #282, #29 ) ;
#88 = DIRECTION ( 'NONE',  ( -4.275831445896958607E-31, -1.000000000000000000, -1.224646799147353207E-16 ) ) ;
#89 = EDGE_CURVE ( 'NONE', #267, #267, #247, .T. ) ;
#90 = FACE_OUTER_BOUND ( 'NONE', #260, .T. ) ;
#91 = CIRCLE ( 'NONE', #212, 5.490000000000000213 ) ;
#92 = ORIENTED_EDGE ( 'NONE', *, *, #264, .F. ) ;
#93 = DIRECTION ( 'NONE',  ( 3.491481338843133355E-15, -1.224646799147353207E-16, 1.000000000000000000 ) ) ;
#94 = EDGE_CURVE ( 'NONE', #56, #56, #225, .T. ) ;
#95 = CYLINDRICAL_SURFACE ( 'NONE', #97, 5.999999999999998224 ) ;
#96 = APPROVAL ( #141, 'UNSPECIFIED' ) ;
#97 = AXIS2_PLACEMENT_3D ( 'NONE', #99, #228, #204 ) ;
#98 = DIRECTION ( 'NONE',  ( 0.0000000000000000000, 1.000000000000000000, 0.0000000000000000000 ) ) ;
#99 = CARTESIAN_POINT ( 'NONE',  ( 0.0000000000000000000, 0.0000000000000000000, 0.0000000000000000000 ) ) ;
#100 = DIRECTION ( 'NONE',  ( 0.0000000000000000000, 1.000000000000000000, 0.0000000000000000000 ) ) ;
#101 = AXIS2_PLACEMENT_3D ( 'NONE', #110, #66, #88 ) ;
#102 = DATE_AND_TIME ( #166, #74 ) ;
#103 = EDGE_LOOP ( 'NONE', ( #44 ) ) ;
#104 = COORDINATED_UNIVERSAL_TIME_OFFSET ( 1, 0, .AHEAD. ) ;
#105 = CALENDAR_DATE ( 2021, 2, 12 ) ;
#106 = LOCAL_TIME ( 9, 19, 43.00000000000000000, #47 ) ;
#107 = SHAPE_DEFINITION_REPRESENTATION ( #215, #64 ) ;
#108 = DATE_AND_TIME ( #218, #106 ) ;
#109 = FACE_BOUND ( 'NONE', #283, .T. ) ;
#110 = CARTESIAN_POINT ( 'NONE',  ( 6.633814543801952113E-14, 4.116840603406795794E-32, 19.00000000000000000 ) ) ;
#111 = AXIS2_PLACEMENT_3D ( 'NONE', #43, #22, #244 ) ;
#112 = FACE_BOUND ( 'NONE', #103, .T. ) ;
#113 = CONICAL_SURFACE ( 'NONE', #152, 4.749999999999990230, 0.5235987755982935976 ) ;
#114 = CARTESIAN_POINT ( 'NONE',  ( 1.396592535537251567E-15, -4.898587196589406296E-17, 0.3999999999999994671 ) ) ;
#115 = FACE_OUTER_BOUND ( 'NONE', #217, .T. ) ;
#116 = CARTESIAN_POINT ( 'NONE',  ( 3.416555881846535738E-13, -1.198366486529116725E-14, 97.85404962177391042 ) ) ;
#117 = VERTEX_POINT ( 'NONE', #208 ) ;
#118 = PERSON_AND_ORGANIZATION_ROLE ( 'creator' ) ;
#119 = CIRCLE ( 'NONE', #111, 5.000000000000000888 ) ;
#120 = DATE_AND_TIME ( #105, #270 ) ;
#121 = ADVANCED_FACE ( 'NONE', ( #221 ), #150, .F. ) ;
#122 = APPLICATION_PROTOCOL_DEFINITION ( 'international standard', 'config_control_design', 1994, #165 ) ;
#123 = ORGANIZATION ( 'UNSPECIFIED', 'UNSPECIFIED', '' ) ;
#124 = CARTESIAN_POINT ( 'NONE',  ( 4.957903501157248607E-13, -1.738998454789241313E-14, 142.0000000000000000 ) ) ;
#125 = EDGE_CURVE ( 'NONE', #235, #235, #119, .T. ) ;
#126 = DIRECTION ( 'NONE',  ( -3.491481338843133355E-15, 1.224646799147353207E-16, -1.000000000000000000 ) ) ;
#127 = PERSON_AND_ORGANIZATION ( #54, #123 ) ;
#128 = PLANE ( 'NONE',  #268 ) ;
#129 = CARTESIAN_POINT ( 'NONE',  ( 7.081323851171029064E-14, -2.483794053711260950E-15, 20.28171759760100201 ) ) ;
#130 = APPROVAL ( #220, 'UNSPECIFIED' ) ;
#131 = DIRECTION ( 'NONE',  ( 3.491481338843133355E-15, -1.224646799147353207E-16, 1.000000000000000000 ) ) ;
#132 = CARTESIAN_POINT ( 'NONE',  ( 6.633814543801952113E-14, -2.326828918379970970E-15, 19.00000000000000000 ) ) ;
#133 = DIRECTION ( 'NONE',  ( -3.491481338843133355E-15, 1.224646799147353207E-16, -1.000000000000000000 ) ) ;
#134 = AXIS2_PLACEMENT_3D ( 'NONE', #27, #178, #80 ) ;
#135 = FACE_OUTER_BOUND ( 'NONE', #172, .T. ) ;
#136 = CC_DESIGN_DATE_AND_TIME_ASSIGNMENT ( #87, #168, ( #262 ) ) ;
#137 = MECHANICAL_CONTEXT ( 'NONE', #165, 'mechanical' ) ;
#138 = EDGE_LOOP ( 'NONE', ( #36 ) ) ;
#139 = TOROIDAL_SURFACE ( 'NONE', #3, 6.750000000000001776, 1.999999999999997113 ) ;
#140 = AXIS2_PLACEMENT_3D ( 'NONE', #55, #176, #14 ) ;
#141 = APPROVAL_STATUS ( 'not_yet_approved' ) ;
#142 = ORIENTED_EDGE ( 'NONE', *, *, #272, .F. ) ;
#143 = PERSON_AND_ORGANIZATION ( #54, #123 ) ;
#144 = ORIENTED_EDGE ( 'NONE', *, *, #89, .T. ) ;
#145 = ADVANCED_FACE ( 'NONE', ( #69, #109 ), #60, .T. ) ;
#146 = CARTESIAN_POINT ( 'NONE',  ( 6.633814543801952113E-14, 4.116840603406795794E-32, 19.00000000000000000 ) ) ;
#147 = CARTESIAN_POINT ( 'NONE',  ( 8.519791162515051553E-31, -2.988340467554976689E-32, 2.440165172224004440E-16 ) ) ;
#148 = APPROVAL_DATE_TIME ( #108, #130 ) ;
#149 = ORIENTED_EDGE ( 'NONE', *, *, #177, .T. ) ;
#150 = PLANE ( 'NONE',  #73 ) ;
#151 = EDGE_LOOP ( 'NONE', ( #219 ) ) ;
#152 = AXIS2_PLACEMENT_3D ( 'NONE', #11, #271, #100 ) ;
#153 = DIRECTION ( 'NONE',  ( 4.275831445896958607E-31, 1.000000000000000000, 1.224646799147353207E-16 ) ) ;
#154 = ADVANCED_FACE ( 'NONE', ( #90 ), #128, .F. ) ;
#155 = CYLINDRICAL_SURFACE ( 'NONE', #256, 5.489999999999998437 ) ;
#156 = CC_DESIGN_PERSON_AND_ORGANIZATION_ASSIGNMENT ( #143, #1, ( #10 ) ) ;
#157 = APPROVAL_PERSON_ORGANIZATION ( #252, #96, #41 ) ;
#158 = DIRECTION ( 'NONE',  ( 4.275831445896958607E-31, 1.000000000000000000, 1.224646799147352961E-16 ) ) ;
#159 = ADVANCED_FACE ( 'NONE', ( #135 ), #245, .F. ) ;
#160 = CARTESIAN_POINT ( 'NONE',  ( 3.028377322213058170E-30, 5.090000000000002522, 8.673617379884035472E-16 ) ) ;
#161 = APPROVAL_STATUS ( 'not_yet_approved' ) ;
#162 = CARTESIAN_POINT ( 'NONE',  ( 0.0000000000000000000, 0.0000000000000000000, 0.0000000000000000000 ) ) ;
#163 = VERTEX_POINT ( 'NONE', #234 ) ;
#164 = EDGE_LOOP ( 'NONE', ( #67 ) ) ;
#165 = APPLICATION_CONTEXT ( 'configuration controlled 3d designs of mechanical parts and assemblies' ) ;
#166 = CALENDAR_DATE ( 2021, 2, 12 ) ;
#167 = ADVANCED_FACE ( 'NONE', ( #180, #115 ), #248, .T. ) ;
#168 = DATE_TIME_ROLE ( 'classification_date' ) ;
#169 = DIRECTION ( 'NONE',  ( -4.275831445896958607E-31, -1.000000000000000000, -1.224646799147353207E-16 ) ) ;
#170 = DIRECTION ( 'NONE',  ( 4.275831445896958607E-31, 1.000000000000000000, 1.224646799147353207E-16 ) ) ;
#171 =( GEOMETRIC_REPRESENTATION_CONTEXT ( 3 ) GLOBAL_UNCERTAINTY_ASSIGNED_CONTEXT ( ( #18 ) ) GLOBAL_UNIT_ASSIGNED_CONTEXT ( ( #81, #35, #62 ) ) REPRESENTATION_CONTEXT ( 'NONE', 'WORKASPACE' ) );
#172 = EDGE_LOOP ( 'NONE', ( #63 ) ) ;
#173 = ORIENTED_EDGE ( 'NONE', *, *, #214, .T. ) ;
#174 = CARTESIAN_POINT ( 'NONE',  ( 4.922988687768816390E-13, -1.726751986797767482E-14, 140.9999999999999716 ) ) ;
#175 = CC_DESIGN_PERSON_AND_ORGANIZATION_ASSIGNMENT ( #65, #71, ( #262 ) ) ;
#176 = DIRECTION ( 'NONE',  ( -3.491481338843133355E-15, 1.224646799147353207E-16, -1.000000000000000000 ) ) ;
#177 = EDGE_CURVE ( 'NONE', #187, #187, #91, .T. ) ;
#178 = DIRECTION ( 'NONE',  ( -3.491481338843133355E-15, 1.224646799147353207E-16, -1.000000000000000000 ) ) ;
#179 = DIRECTION ( 'NONE',  ( -3.491481338843133355E-15, 1.224646799147353207E-16, -1.000000000000000000 ) ) ;
#180 = FACE_OUTER_BOUND ( 'NONE', #232, .T. ) ;
#181 = AXIS2_PLACEMENT_3D ( 'NONE', #147, #126, #242 ) ;
#182 = COORDINATED_UNIVERSAL_TIME_OFFSET ( 1, 0, .AHEAD. ) ;
#183 = PERSON_AND_ORGANIZATION_ROLE ( 'design_owner' ) ;
#184 = AXIS2_PLACEMENT_3D ( 'NONE', #223, #131, #23 ) ;
#185 = ADVANCED_FACE ( 'NONE', ( #51, #269 ), #113, .T. ) ;
#186 = APPROVAL_DATE_TIME ( #102, #96 ) ;
#187 = VERTEX_POINT ( 'NONE', #57 ) ;
#188 = APPROVAL_DATE_TIME ( #120, #196 ) ;
#189 = ORIENTED_EDGE ( 'NONE', *, *, #94, .F. ) ;
#190 = AXIS2_PLACEMENT_3D ( 'NONE', #174, #45, #237 ) ;
#191 = DESIGN_CONTEXT ( 'detailed design', #240, 'design' ) ;
#192 = MANIFOLD_SOLID_BREP ( 'Corps-Déplacer/Copier1[2]', #197 ) ;
#193 = CIRCLE ( 'NONE', #134, 4.750000000000001776 ) ;
#194 = FACE_OUTER_BOUND ( 'NONE', #61, .T. ) ;
#195 = DIRECTION ( 'NONE',  ( -3.491481338843133355E-15, 1.224646799147353207E-16, -1.000000000000000000 ) ) ;
#196 = APPROVAL ( #161, 'UNSPECIFIED' ) ;
#197 = CLOSED_SHELL ( 'NONE', ( #154, #5, #222, #46 ) ) ;
#198 = CARTESIAN_POINT ( 'NONE',  ( 4.259895581257525776E-31, -1.494170233777488345E-32, 1.220082586112002220E-16 ) ) ;
#199 = CARTESIAN_POINT ( 'NONE',  ( 3.351822085289408021E-13, -1.214306433183764966E-14, 96.00000000000000000 ) ) ;
#200 = EDGE_LOOP ( 'NONE', ( #6 ) ) ;
#201 = DIRECTION ( 'NONE',  ( -3.491481338843133355E-15, 1.224646799147353207E-16, -1.000000000000000000 ) ) ;
#202 = CC_DESIGN_APPROVAL ( #196, ( #250 ) ) ;
#203 = VERTEX_POINT ( 'NONE', #160 ) ;
#204 = DIRECTION ( 'NONE',  ( 4.275831445896958607E-31, 1.000000000000000000, 1.224646799147353207E-16 ) ) ;
#205 = CLOSED_SHELL ( 'NONE', ( #121, #185, #167, #42, #238, #145, #159 ) ) ;
#206 = AXIS2_PLACEMENT_3D ( 'NONE', #114, #201, #79 ) ;
#207 = FACE_OUTER_BOUND ( 'NONE', #261, .T. ) ;
#208 = CARTESIAN_POINT ( 'NONE',  ( 3.416555881846535738E-13, 5.999999999999983125, 97.85404962177391042 ) ) ;
#209 = EDGE_CURVE ( 'NONE', #277, #277, #193, .T. ) ;
#210 = DATE_TIME_ROLE ( 'creation_date' ) ;
#211 = PRODUCT ( '963736', '963736', '', ( #137 ) ) ;
#212 = AXIS2_PLACEMENT_3D ( 'NONE', #132, #229, #33 ) ;
#213 = VERTEX_POINT ( 'NONE', #34 ) ;
#214 = EDGE_CURVE ( 'NONE', #117, #117, #78, .T. ) ;
#215 = PRODUCT_DEFINITION_SHAPE ( 'NONE', 'NONE',  #250 ) ;
#216 = ORIENTED_EDGE ( 'NONE', *, *, #209, .F. ) ;
#217 = EDGE_LOOP ( 'NONE', ( #236 ) ) ;
#218 = CALENDAR_DATE ( 2021, 2, 12 ) ;
#219 = ORIENTED_EDGE ( 'NONE', *, *, #214, .F. ) ;
#220 = APPROVAL_STATUS ( 'not_yet_approved' ) ;
#221 = FACE_OUTER_BOUND ( 'NONE', #164, .T. ) ;
#222 = ADVANCED_FACE ( 'NONE', ( #207, #53 ), #155, .T. ) ;
#223 = CARTESIAN_POINT ( 'NONE',  ( 1.396592535537251567E-15, -4.898587196589406296E-17, 0.3999999999999994671 ) ) ;
#224 = COORDINATED_UNIVERSAL_TIME_OFFSET ( 1, 0, .AHEAD. ) ;
#225 = CIRCLE ( 'NONE', #39, 4.749999999999990230 ) ;
#226 = EDGE_LOOP ( 'NONE', ( #280 ) ) ;
#227 = PLANE ( 'NONE',  #101 ) ;
#228 = DIRECTION ( 'NONE',  ( -3.491481338843133355E-15, 1.224646799147353207E-16, -1.000000000000000000 ) ) ;
#229 = DIRECTION ( 'NONE',  ( -3.491481338843133355E-15, 1.224646799147353207E-16, -1.000000000000000000 ) ) ;
#230 = CARTESIAN_POINT ( 'NONE',  ( 4.957903501157248607E-13, 3.749399456654618840E-32, 142.0000000000000000 ) ) ;
#231 = CC_DESIGN_DATE_AND_TIME_ASSIGNMENT ( #255, #210, ( #250 ) ) ;
#232 = EDGE_LOOP ( 'NONE', ( #189 ) ) ;
#233 = CARTESIAN_POINT ( 'NONE',  ( 7.081323851171029064E-14, 4.749999999999987566, 20.28171759760100201 ) ) ;
#234 = CARTESIAN_POINT ( 'NONE',  ( 6.633814543801952113E-14, 5.489999999999997549, 19.00000000000000000 ) ) ;
#235 = VERTEX_POINT ( 'NONE', #279 ) ;
#236 = ORIENTED_EDGE ( 'NONE', *, *, #209, .T. ) ;
#237 = DIRECTION ( 'NONE',  ( 0.0000000000000000000, 1.000000000000000000, 0.0000000000000000000 ) ) ;
#238 = ADVANCED_FACE ( 'NONE', ( #13, #50 ), #95, .T. ) ;
#239 = EDGE_LOOP ( 'NONE', ( #216 ) ) ;
#240 = APPLICATION_CONTEXT ( 'configuration controlled 3d designs of mechanical parts and assemblies' ) ;
#241 = APPROVAL_ROLE ( '' ) ;
#242 = DIRECTION ( 'NONE',  ( 4.275831445896958607E-31, 1.000000000000000000, 1.224646799147353207E-16 ) ) ;
#243 = CC_DESIGN_SECURITY_CLASSIFICATION ( #262, ( #10 ) ) ;
#244 = DIRECTION ( 'NONE',  ( 0.0000000000000000000, 1.000000000000000000, 0.0000000000000000000 ) ) ;
#245 = PLANE ( 'NONE',  #20 ) ;
#246 = CARTESIAN_POINT ( 'NONE',  ( 0.0000000000000000000, 0.0000000000000000000, 0.0000000000000000000 ) ) ;
#247 = CIRCLE ( 'NONE', #190, 6.000000000000000888 ) ;
#248 = CYLINDRICAL_SURFACE ( 'NONE', #281, 4.749999999999995559 ) ;
#249 = AXIS2_PLACEMENT_3D ( 'NONE', #116, #179, #98 ) ;
#250 = PRODUCT_DEFINITION ( 'UNKNOWN', '', #10, #191 ) ;
#251 = DIRECTION ( 'NONE',  ( -4.275831445896958607E-31, -1.000000000000000000, -1.224646799147353207E-16 ) ) ;
#252 = PERSON_AND_ORGANIZATION ( #54, #123 ) ;
#253 = CIRCLE ( 'NONE', #140, 5.490000000000000213 ) ;
#254 = CC_DESIGN_PERSON_AND_ORGANIZATION_ASSIGNMENT ( #258, #276, ( #10 ) ) ;
#255 = DATE_AND_TIME ( #83, #4 ) ;
#256 = AXIS2_PLACEMENT_3D ( 'NONE', #30, #31, #158 ) ;
#257 = CC_DESIGN_APPROVAL ( #130, ( #262 ) ) ;
#258 = PERSON_AND_ORGANIZATION ( #54, #123 ) ;
#259 = EDGE_LOOP ( 'NONE', ( #149 ) ) ;
#260 = EDGE_LOOP ( 'NONE', ( #49 ) ) ;
#261 = EDGE_LOOP ( 'NONE', ( #92 ) ) ;
#262 = SECURITY_CLASSIFICATION ( '', '', #68 ) ;
#263 = EDGE_LOOP ( 'NONE', ( #142 ) ) ;
#264 = EDGE_CURVE ( 'NONE', #213, #213, #32, .T. ) ;
#265 = DIRECTION ( 'NONE',  ( -3.491481338843133355E-15, 1.224646799147353207E-16, -1.000000000000000000 ) ) ;
#266 = AXIS2_PLACEMENT_3D ( 'NONE', #124, #195, #2 ) ;
#267 = VERTEX_POINT ( 'NONE', #75 ) ;
#268 = AXIS2_PLACEMENT_3D ( 'NONE', #198, #26, #251 ) ;
#269 = FACE_BOUND ( 'NONE', #226, .T. ) ;
#270 = LOCAL_TIME ( 9, 19, 43.00000000000000000, #182 ) ;
#271 = DIRECTION ( 'NONE',  ( -3.491481338843133355E-15, 1.224646799147353207E-16, -1.000000000000000000 ) ) ;
#272 = EDGE_CURVE ( 'NONE', #163, #163, #253, .T. ) ;
#273 = DIRECTION ( 'NONE',  ( 1.000000000000000000, 0.0000000000000000000, 0.0000000000000000000 ) ) ;
#274 = PERSON_AND_ORGANIZATION ( #54, #123 ) ;
#275 = CC_DESIGN_APPROVAL ( #96, ( #10 ) ) ;
#276 = PERSON_AND_ORGANIZATION_ROLE ( 'creator' ) ;
#277 = VERTEX_POINT ( 'NONE', #59 ) ;
#278 = CC_DESIGN_PERSON_AND_ORGANIZATION_ASSIGNMENT ( #38, #118, ( #250 ) ) ;
#279 = CARTESIAN_POINT ( 'NONE',  ( 4.957903501157248607E-13, 4.999999999999984013, 142.0000000000000000 ) ) ;
#280 = ORIENTED_EDGE ( 'NONE', *, *, #94, .T. ) ;
#281 = AXIS2_PLACEMENT_3D ( 'NONE', #246, #133, #153 ) ;
#282 = CALENDAR_DATE ( 2021, 2, 12 ) ;
#283 = EDGE_LOOP ( 'NONE', ( #72 ) ) ;
ENDSEC;
END-ISO-10303-21;
