ISO-10303-21;
HEADER;
FILE_DESCRIPTION (( 'STEP AP203' ),
    '1' );
FILE_NAME ('963735.step',
    '2021-12-02T08:11:05',
    ( '' ),
    ( '' ),
    'SwSTEP 2.0',
    'SolidWorks 2019',
    '' );
FILE_SCHEMA (( 'CONFIG_CONTROL_DESIGN' ));
ENDSEC;

DATA;
#1 = EDGE_LOOP ( 'NONE', ( #2 ) ) ;
#2 = ORIENTED_EDGE ( 'NONE', *, *, #240, .T. ) ;
#3 = SHAPE_DEFINITION_REPRESENTATION ( #187, #246 ) ;
#4 = EDGE_LOOP ( 'NONE', ( #234 ) ) ;
#5 = FACE_OUTER_BOUND ( 'NONE', #71, .T. ) ;
#6 = DIRECTION ( 'NONE',  ( 4.275831445896959482E-31, 1.000000000000000000, 1.224646799147353207E-16 ) ) ;
#7 = CLOSED_SHELL ( 'NONE', ( #40, #217, #180, #228 ) ) ;
#8 = DIRECTION ( 'NONE',  ( 0.0000000000000000000, 1.000000000000000000, 0.0000000000000000000 ) ) ;
#9 = EDGE_CURVE ( 'NONE', #155, #155, #134, .T. ) ;
#10 = DIRECTION ( 'NONE',  ( -3.491481338843133355E-15, 1.224646799147353207E-16, -1.000000000000000000 ) ) ;
#11 = DIRECTION ( 'NONE',  ( 4.275831445896958607E-31, 1.000000000000000000, 1.224646799147353454E-16 ) ) ;
#12 = CONICAL_SURFACE ( 'NONE', #62, 4.000000000000007994, 0.7853981633974479459 ) ;
#13 = PERSON_AND_ORGANIZATION_ROLE ( 'design_owner' ) ;
#14 = APPROVAL_STATUS ( 'not_yet_approved' ) ;
#15 = CALENDAR_DATE ( 2021, 2, 12 ) ;
#16 = VERTEX_POINT ( 'NONE', #166 ) ;
#17 = CARTESIAN_POINT ( 'NONE',  ( 6.633814543801952113E-14, 5.259999999999997122, 19.00000000000000000 ) ) ;
#18 = APPROVAL ( #186, 'UNSPECIFIED' ) ;
#19 = LOCAL_TIME ( 9, 11, 5.000000000000000000, #160 ) ;
#20 = FACE_BOUND ( 'NONE', #65, .T. ) ;
#21 = ORIENTED_EDGE ( 'NONE', *, *, #156, .F. ) ;
#22 = SECURITY_CLASSIFICATION_LEVEL ( 'unclassified' ) ;
#23 = PLANE ( 'NONE',  #238 ) ;
#24 = AXIS2_PLACEMENT_3D ( 'NONE', #153, #117, #159 ) ;
#25 = PERSON_AND_ORGANIZATION_ROLE ( 'creator' ) ;
#26 = FACE_OUTER_BOUND ( 'NONE', #1, .T. ) ;
#27 = CLOSED_SHELL ( 'NONE', ( #70, #108, #167, #136, #263, #124, #209 ) ) ;
#28 = EDGE_LOOP ( 'NONE', ( #85 ) ) ;
#29 = APPROVAL ( #213, 'UNSPECIFIED' ) ;
#30 = FACE_OUTER_BOUND ( 'NONE', #4, .T. ) ;
#31 = CIRCLE ( 'NONE', #161, 4.860000000000001208 ) ;
#32 = EDGE_CURVE ( 'NONE', #139, #139, #227, .T. ) ;
#33 = FACE_OUTER_BOUND ( 'NONE', #242, .T. ) ;
#34 = CARTESIAN_POINT ( 'NONE',  ( 1.396592535537251370E-15, -4.898587196589405680E-17, 0.3999999999999994116 ) ) ;
#35 = DIRECTION ( 'NONE',  ( -3.491481338843133355E-15, 1.224646799147353207E-16, -1.000000000000000000 ) ) ;
#36 = CC_DESIGN_APPROVAL ( #29, ( #132 ) ) ;
#37 = AXIS2_PLACEMENT_3D ( 'NONE', #112, #212, #129 ) ;
#38 = DATE_AND_TIME ( #60, #19 ) ;
#39 = AXIS2_PLACEMENT_3D ( 'NONE', #135, #141, #221 ) ;
#40 = ADVANCED_FACE ( 'NONE', ( #26 ), #237, .F. ) ;
#41 = VERTEX_POINT ( 'NONE', #276 ) ;
#42 = PERSON_AND_ORGANIZATION ( #127, #104 ) ;
#43 = CALENDAR_DATE ( 2021, 2, 12 ) ;
#44 = FACE_BOUND ( 'NONE', #28, .T. ) ;
#45 = PRODUCT_DEFINITION_FORMATION_WITH_SPECIFIED_SOURCE ( 'ANY', '', #230, .NOT_KNOWN. ) ;
#46 = ORIENTED_EDGE ( 'NONE', *, *, #162, .F. ) ;
#47 = ORIENTED_EDGE ( 'NONE', *, *, #32, .T. ) ;
#48 = FACE_OUTER_BOUND ( 'NONE', #194, .T. ) ;
#49 = EDGE_CURVE ( 'NONE', #122, #122, #202, .T. ) ;
#50 = EDGE_LOOP ( 'NONE', ( #170 ) ) ;
#51 = CIRCLE ( 'NONE', #207, 5.000000000000000888 ) ;
#52 = CYLINDRICAL_SURFACE ( 'NONE', #219, 5.000000000000004441 ) ;
#53 = FACE_OUTER_BOUND ( 'NONE', #262, .T. ) ;
#54 = CARTESIAN_POINT ( 'NONE',  ( 4.643670180661366731E-13, 2.999519565323696057E-32, 133.0000000000000000 ) ) ;
#55 = AXIS2_PLACEMENT_3D ( 'NONE', #259, #264, #151 ) ;
#56 = DIRECTION ( 'NONE',  ( 4.275831445896958607E-31, 1.000000000000000000, 1.224646799147353207E-16 ) ) ;
#57 = DIRECTION ( 'NONE',  ( -3.491481338843133355E-15, 1.224646799147353207E-16, -1.000000000000000000 ) ) ;
#58 = CALENDAR_DATE ( 2021, 2, 12 ) ;
#59 = APPROVAL_DATE_TIME ( #38, #18 ) ;
#60 = CALENDAR_DATE ( 2021, 2, 12 ) ;
#61 = PERSON_AND_ORGANIZATION ( #127, #104 ) ;
#62 = AXIS2_PLACEMENT_3D ( 'NONE', #196, #265, #282 ) ;
#63 = APPLICATION_CONTEXT ( 'configuration controlled 3d designs of mechanical parts and assemblies' ) ;
#64 = PERSON_AND_ORGANIZATION ( #127, #104 ) ;
#65 = EDGE_LOOP ( 'NONE', ( #198 ) ) ;
#66 = LOCAL_TIME ( 9, 11, 5.000000000000000000, #119 ) ;
#67 = ORIENTED_EDGE ( 'NONE', *, *, #32, .F. ) ;
#68 = DATE_AND_TIME ( #43, #82 ) ;
#69 = DIRECTION ( 'NONE',  ( -4.275831445896958607E-31, -1.000000000000000000, -1.224646799147353207E-16 ) ) ;
#70 = ADVANCED_FACE ( 'NONE', ( #146 ), #23, .F. ) ;
#71 = EDGE_LOOP ( 'NONE', ( #67 ) ) ;
#72 = DESIGN_CONTEXT ( 'detailed design', #173, 'design' ) ;
#73 = CARTESIAN_POINT ( 'NONE',  ( 6.633814543801952113E-14, 3.944368228400681458E-32, 19.00000000000000000 ) ) ;
#74 = AXIS2_PLACEMENT_3D ( 'NONE', #96, #35, #8 ) ;
#75 = FACE_OUTER_BOUND ( 'NONE', #149, .T. ) ;
#76 = FACE_OUTER_BOUND ( 'NONE', #103, .T. ) ;
#77 = DIRECTION ( 'NONE',  ( -3.491481338843133355E-15, 1.224646799147353207E-16, -1.000000000000000000 ) ) ;
#78 = CC_DESIGN_APPROVAL ( #18, ( #191 ) ) ;
#79 = DIRECTION ( 'NONE',  ( -3.491481338843133355E-15, 1.224646799147353207E-16, -1.000000000000000000 ) ) ;
#80 = CC_DESIGN_DATE_AND_TIME_ASSIGNMENT ( #130, #126, ( #132 ) ) ;
#81 = CARTESIAN_POINT ( 'NONE',  ( 4.643670180661366731E-13, 3.999999999999991562, 133.0000000000000000 ) ) ;
#82 = LOCAL_TIME ( 9, 11, 5.000000000000000000, #107 ) ;
#83 = AXIS2_PLACEMENT_3D ( 'NONE', #216, #220, #91 ) ;
#84 = DIRECTION ( 'NONE',  ( 0.0000000000000000000, 0.0000000000000000000, 1.000000000000000000 ) ) ;
#85 = ORIENTED_EDGE ( 'NONE', *, *, #204, .T. ) ;
#86 = COORDINATED_UNIVERSAL_TIME_OFFSET ( 1, 0, .AHEAD. ) ;
#87 = ORIENTED_EDGE ( 'NONE', *, *, #240, .F. ) ;
#88 = CC_DESIGN_APPROVAL ( #279, ( #45 ) ) ;
#89 = PERSON_AND_ORGANIZATION_ROLE ( 'design_supplier' ) ;
#90 = ORIENTED_EDGE ( 'NONE', *, *, #9, .T. ) ;
#91 = DIRECTION ( 'NONE',  ( 0.0000000000000000000, 1.000000000000000000, 0.0000000000000000000 ) ) ;
#92 = DIRECTION ( 'NONE',  ( -3.491481338843133355E-15, 1.224646799147353207E-16, -1.000000000000000000 ) ) ;
#93 = AXIS2_PLACEMENT_3D ( 'NONE', #34, #222, #116 ) ;
#94 = CARTESIAN_POINT ( 'NONE',  ( 3.037588764793525640E-13, -1.040834085586084257E-14, 87.00000000000000000 ) ) ;
#95 = DIRECTION ( 'NONE',  ( -4.275831445896958607E-31, -1.000000000000000000, -1.224646799147353207E-16 ) ) ;
#96 = CARTESIAN_POINT ( 'NONE',  ( 3.037588764793525640E-13, -1.065442715258197209E-14, 87.00000000000000000 ) ) ;
#97 = CIRCLE ( 'NONE', #39, 5.259999999999999787 ) ;
#98 = FACE_OUTER_BOUND ( 'NONE', #148, .T. ) ;
#99 = PERSON_AND_ORGANIZATION ( #127, #104 ) ;
#100 =( NAMED_UNIT ( * ) PLANE_ANGLE_UNIT ( ) SI_UNIT ( $, .RADIAN. ) );
#101 = DATE_AND_TIME ( #15, #66 ) ;
#102 =( GEOMETRIC_REPRESENTATION_CONTEXT ( 3 ) GLOBAL_UNCERTAINTY_ASSIGNED_CONTEXT ( ( #199 ) ) GLOBAL_UNIT_ASSIGNED_CONTEXT ( ( #120, #100, #254 ) ) REPRESENTATION_CONTEXT ( 'NONE', 'WORKASPACE' ) );
#103 = EDGE_LOOP ( 'NONE', ( #145 ) ) ;
#104 = ORGANIZATION ( 'UNSPECIFIED', 'UNSPECIFIED', '' ) ;
#105 = ORIENTED_EDGE ( 'NONE', *, *, #49, .F. ) ;
#106 = CARTESIAN_POINT ( 'NONE',  ( 1.232255950306832401E-30, -4.322172049109561590E-32, 3.529321312984957258E-16 ) ) ;
#107 = COORDINATED_UNIVERSAL_TIME_OFFSET ( 1, 0, .AHEAD. ) ;
#108 = ADVANCED_FACE ( 'NONE', ( #48, #44 ), #249, .T. ) ;
#109 = DIRECTION ( 'NONE',  ( 3.491481338843133355E-15, -1.224646799147353207E-16, 1.000000000000000000 ) ) ;
#110 = PERSON_AND_ORGANIZATION ( #127, #104 ) ;
#111 = DIRECTION ( 'NONE',  ( 0.0000000000000000000, 1.000000000000000000, 0.0000000000000000000 ) ) ;
#112 = CARTESIAN_POINT ( 'NONE',  ( 4.608755367272936534E-13, -1.616533774874506480E-14, 132.0000000000000000 ) ) ;
#113 = CARTESIAN_POINT ( 'NONE',  ( 0.0000000000000000000, 0.0000000000000000000, 0.0000000000000000000 ) ) ;
#114 = FACE_OUTER_BOUND ( 'NONE', #174, .T. ) ;
#115 = CC_DESIGN_PERSON_AND_ORGANIZATION_ASSIGNMENT ( #61, #13, ( #230 ) ) ;
#116 = DIRECTION ( 'NONE',  ( -4.393756527119171488E-31, -1.000000000000000000, -1.236732516143161582E-16 ) ) ;
#117 = DIRECTION ( 'NONE',  ( -3.491481338843133355E-15, 1.224646799147353207E-16, -1.000000000000000000 ) ) ;
#118 = PERSON_AND_ORGANIZATION ( #127, #104 ) ;
#119 = COORDINATED_UNIVERSAL_TIME_OFFSET ( 1, 0, .AHEAD. ) ;
#120 =( LENGTH_UNIT ( ) NAMED_UNIT ( * ) SI_UNIT ( .MILLI., .METRE. ) );
#121 = APPROVAL_PERSON_ORGANIZATION ( #171, #29, #193 ) ;
#122 = VERTEX_POINT ( 'NONE', #231 ) ;
#123 = APPROVAL_ROLE ( '' ) ;
#124 = ADVANCED_FACE ( 'NONE', ( #5, #20 ), #12, .T. ) ;
#125 = CARTESIAN_POINT ( 'NONE',  ( 6.942233120502262603E-14, -2.435007592729914832E-15, 19.88334591186015388 ) ) ;
#126 = DATE_TIME_ROLE ( 'classification_date' ) ;
#127 = PERSON ( 'UNSPECIFIED', 'UNSPECIFIED', 'UNSPECIFIED', ('UNSPECIFIED'), ('UNSPECIFIED'), ('UNSPECIFIED') ) ;
#128 = EDGE_LOOP ( 'NONE', ( #87 ) ) ;
#129 = DIRECTION ( 'NONE',  ( 0.0000000000000000000, 1.000000000000000000, 0.0000000000000000000 ) ) ;
#130 = DATE_AND_TIME ( #283, #138 ) ;
#131 = ORIENTED_EDGE ( 'NONE', *, *, #275, .F. ) ;
#132 = SECURITY_CLASSIFICATION ( '', '', #22 ) ;
#133 = ORIENTED_EDGE ( 'NONE', *, *, #9, .F. ) ;
#134 = CIRCLE ( 'NONE', #55, 5.259999999999997122 ) ;
#135 = CARTESIAN_POINT ( 'NONE',  ( 6.633814543801952113E-14, -2.326828918379970970E-15, 19.00000000000000000 ) ) ;
#136 = ADVANCED_FACE ( 'NONE', ( #225, #53 ), #185, .F. ) ;
#137 = CYLINDRICAL_SURFACE ( 'NONE', #157, 5.259999999999998899 ) ;
#138 = LOCAL_TIME ( 9, 11, 5.000000000000000000, #86 ) ;
#139 = VERTEX_POINT ( 'NONE', #224 ) ;
#140 = DIRECTION ( 'NONE',  ( 4.275831445896959482E-31, 1.000000000000000000, 1.224646799147353207E-16 ) ) ;
#141 = DIRECTION ( 'NONE',  ( -3.491481338843133355E-15, 1.224646799147353207E-16, -1.000000000000000000 ) ) ;
#142 = APPROVAL_ROLE ( '' ) ;
#143 = APPROVAL_DATE_TIME ( #101, #279 ) ;
#144 = CIRCLE ( 'NONE', #24, 4.749999999999992006 ) ;
#145 = ORIENTED_EDGE ( 'NONE', *, *, #204, .F. ) ;
#146 = FACE_OUTER_BOUND ( 'NONE', #50, .T. ) ;
#147 = APPROVAL_DATE_TIME ( #68, #29 ) ;
#148 = EDGE_LOOP ( 'NONE', ( #21 ) ) ;
#149 = EDGE_LOOP ( 'NONE', ( #133 ) ) ;
#150 = EDGE_LOOP ( 'NONE', ( #46 ) ) ;
#151 = DIRECTION ( 'NONE',  ( 4.393756527119171488E-31, 1.000000000000000000, 1.236732516143161582E-16 ) ) ;
#152 = APPROVAL_PERSON_ORGANIZATION ( #118, #279, #142 ) ;
#153 = CARTESIAN_POINT ( 'NONE',  ( 6.942233120502262603E-14, -2.435007592729914832E-15, 19.88334591186015388 ) ) ;
#154 = CARTESIAN_POINT ( 'NONE',  ( 0.0000000000000000000, 0.0000000000000000000, 0.0000000000000000000 ) ) ;
#155 = VERTEX_POINT ( 'NONE', #247 ) ;
#156 = EDGE_CURVE ( 'NONE', #16, #16, #51, .T. ) ;
#157 = AXIS2_PLACEMENT_3D ( 'NONE', #179, #92, #6 ) ;
#158 = FACE_BOUND ( 'NONE', #128, .T. ) ;
#159 = DIRECTION ( 'NONE',  ( 0.0000000000000000000, 1.000000000000000000, 0.0000000000000000000 ) ) ;
#160 = COORDINATED_UNIVERSAL_TIME_OFFSET ( 1, 0, .AHEAD. ) ;
#161 = AXIS2_PLACEMENT_3D ( 'NONE', #268, #203, #206 ) ;
#162 = EDGE_CURVE ( 'NONE', #41, #41, #189, .T. ) ;
#163 = VERTEX_POINT ( 'NONE', #81 ) ;
#164 = AXIS2_PLACEMENT_3D ( 'NONE', #106, #192, #172 ) ;
#165 = CARTESIAN_POINT ( 'NONE',  ( 6.942233120502262603E-14, 4.749999999999989342, 19.88334591186015388 ) ) ;
#166 = CARTESIAN_POINT ( 'NONE',  ( 3.071394887490858903E-13, 4.999999999999990230, 87.96824583655184426 ) ) ;
#167 = ADVANCED_FACE ( 'NONE', ( #76, #200 ), #266, .T. ) ;
#168 = CARTESIAN_POINT ( 'NONE',  ( 4.542565983319587431E-30, 4.860000000000001208, 1.301042606982605321E-15 ) ) ;
#169 = AXIS2_PLACEMENT_3D ( 'NONE', #94, #252, #269 ) ;
#170 = ORIENTED_EDGE ( 'NONE', *, *, #49, .T. ) ;
#171 = PERSON_AND_ORGANIZATION ( #127, #104 ) ;
#172 = DIRECTION ( 'NONE',  ( -4.275831445896958607E-31, -1.000000000000000000, -1.224646799147353207E-16 ) ) ;
#173 = APPLICATION_CONTEXT ( 'configuration controlled 3d designs of mechanical parts and assemblies' ) ;
#174 = EDGE_LOOP ( 'NONE', ( #239 ) ) ;
#175 = DIRECTION ( 'NONE',  ( -3.491481338843133355E-15, 1.224646799147353207E-16, -1.000000000000000000 ) ) ;
#176 = CC_DESIGN_PERSON_AND_ORGANIZATION_ASSIGNMENT ( #110, #236, ( #132 ) ) ;
#177 = CARTESIAN_POINT ( 'NONE',  ( 3.071394887490858903E-13, -1.077300306903406976E-14, 87.96824583655184426 ) ) ;
#178 = MANIFOLD_SOLID_BREP ( 'Corps-Déplacer/Copier1[1]', #27 ) ;
#179 = CARTESIAN_POINT ( 'NONE',  ( 0.0000000000000000000, 0.0000000000000000000, 0.0000000000000000000 ) ) ;
#180 = ADVANCED_FACE ( 'NONE', ( #75, #114 ), #137, .T. ) ;
#181 = DIRECTION ( 'NONE',  ( 0.0000000000000000000, 1.000000000000000000, 0.0000000000000000000 ) ) ;
#182 = DIRECTION ( 'NONE',  ( -3.491481338843133355E-15, 1.224646799147353207E-16, -1.000000000000000000 ) ) ;
#183 = AXIS2_PLACEMENT_3D ( 'NONE', #54, #77, #56 ) ;
#184 = FACE_OUTER_BOUND ( 'NONE', #214, .T. ) ;
#185 = TOROIDAL_SURFACE ( 'NONE', #169, 6.750000000000007994, 2.000000000000001776 ) ;
#186 = APPROVAL_STATUS ( 'not_yet_approved' ) ;
#187 = PRODUCT_DEFINITION_SHAPE ( 'NONE', 'NONE',  #191 ) ;
#188 = CC_DESIGN_SECURITY_CLASSIFICATION ( #132, ( #45 ) ) ;
#189 = CIRCLE ( 'NONE', #74, 4.750000000000007994 ) ;
#190 = EDGE_LOOP ( 'NONE', ( #218 ) ) ;
#191 = PRODUCT_DEFINITION ( 'UNKNOWN', '', #45, #72 ) ;
#192 = DIRECTION ( 'NONE',  ( 3.491481338843133355E-15, -1.224646799147353207E-16, 1.000000000000000000 ) ) ;
#193 = APPROVAL_ROLE ( '' ) ;
#194 = EDGE_LOOP ( 'NONE', ( #105 ) ) ;
#195 = APPROVAL_PERSON_ORGANIZATION ( #42, #18, #123 ) ;
#196 = CARTESIAN_POINT ( 'NONE',  ( 4.643670180661366731E-13, -1.628780242865979995E-14, 133.0000000000000000 ) ) ;
#197 = CC_DESIGN_PERSON_AND_ORGANIZATION_ASSIGNMENT ( #215, #89, ( #45 ) ) ;
#198 = ORIENTED_EDGE ( 'NONE', *, *, #275, .T. ) ;
#199 = UNCERTAINTY_MEASURE_WITH_UNIT (LENGTH_MEASURE( 1.000000000000000082E-05 ), #120, 'distance_accuracy_value', 'NONE');
#200 = FACE_OUTER_BOUND ( 'NONE', #190, .T. ) ;
#201 = AXIS2_PLACEMENT_3D ( 'NONE', #73, #205, #95 ) ;
#202 = CIRCLE ( 'NONE', #83, 5.259999999999999787 ) ;
#203 = DIRECTION ( 'NONE',  ( -3.491481338843133355E-15, 1.224646799147353207E-16, -1.000000000000000000 ) ) ;
#204 = EDGE_CURVE ( 'NONE', #255, #255, #144, .T. ) ;
#205 = DIRECTION ( 'NONE',  ( 3.491481338843133355E-15, -1.224646799147353207E-16, 1.000000000000000000 ) ) ;
#206 = DIRECTION ( 'NONE',  ( 4.275831445896959482E-31, 1.000000000000000000, 1.224646799147353454E-16 ) ) ;
#207 = AXIS2_PLACEMENT_3D ( 'NONE', #177, #10, #272 ) ;
#208 = CC_DESIGN_PERSON_AND_ORGANIZATION_ASSIGNMENT ( #99, #277, ( #191 ) ) ;
#209 = ADVANCED_FACE ( 'NONE', ( #270 ), #250, .F. ) ;
#210 = VERTEX_POINT ( 'NONE', #17 ) ;
#211 = VERTEX_POINT ( 'NONE', #168 ) ;
#212 = DIRECTION ( 'NONE',  ( -3.491481338843133355E-15, 1.224646799147353207E-16, -1.000000000000000000 ) ) ;
#213 = APPROVAL_STATUS ( 'not_yet_approved' ) ;
#214 = EDGE_LOOP ( 'NONE', ( #90 ) ) ;
#215 = PERSON_AND_ORGANIZATION ( #127, #104 ) ;
#216 = CARTESIAN_POINT ( 'NONE',  ( 6.633814543801952113E-14, -2.326828918379970970E-15, 19.00000000000000000 ) ) ;
#217 = ADVANCED_FACE ( 'NONE', ( #158, #184 ), #267, .T. ) ;
#218 = ORIENTED_EDGE ( 'NONE', *, *, #162, .T. ) ;
#219 = AXIS2_PLACEMENT_3D ( 'NONE', #154, #57, #11 ) ;
#220 = DIRECTION ( 'NONE',  ( -3.491481338843133355E-15, 1.224646799147353207E-16, -1.000000000000000000 ) ) ;
#221 = DIRECTION ( 'NONE',  ( 0.0000000000000000000, 1.000000000000000000, 0.0000000000000000000 ) ) ;
#222 = DIRECTION ( 'NONE',  ( 3.491481338843133355E-15, -1.224646799147353207E-16, 1.000000000000000000 ) ) ;
#223 = CC_DESIGN_DATE_AND_TIME_ASSIGNMENT ( #226, #274, ( #191 ) ) ;
#224 = CARTESIAN_POINT ( 'NONE',  ( 4.608755367272936534E-13, 4.999999999999991118, 132.0000000000000000 ) ) ;
#225 = FACE_OUTER_BOUND ( 'NONE', #150, .T. ) ;
#226 = DATE_AND_TIME ( #58, #256 ) ;
#227 = CIRCLE ( 'NONE', #37, 5.000000000000007994 ) ;
#228 = ADVANCED_FACE ( 'NONE', ( #30 ), #244, .T. ) ;
#229 = MECHANICAL_CONTEXT ( 'NONE', #63, 'mechanical' ) ;
#230 = PRODUCT ( '963735', '963735', '', ( #229 ) ) ;
#231 = CARTESIAN_POINT ( 'NONE',  ( 6.633814543801952113E-14, 5.259999999999997122, 19.00000000000000000 ) ) ;
#232 = AXIS2_PLACEMENT_3D ( 'NONE', #125, #175, #111 ) ;
#233 = APPLICATION_PROTOCOL_DEFINITION ( 'international standard', 'config_control_design', 1994, #173 ) ;
#234 = ORIENTED_EDGE ( 'NONE', *, *, #271, .F. ) ;
#235 = ORIENTED_EDGE ( 'NONE', *, *, #156, .T. ) ;
#236 = PERSON_AND_ORGANIZATION_ROLE ( 'classification_officer' ) ;
#237 = PLANE ( 'NONE',  #164 ) ;
#238 = AXIS2_PLACEMENT_3D ( 'NONE', #241, #109, #69 ) ;
#239 = ORIENTED_EDGE ( 'NONE', *, *, #271, .T. ) ;
#240 = EDGE_CURVE ( 'NONE', #211, #211, #31, .T. ) ;
#241 = CARTESIAN_POINT ( 'NONE',  ( 6.633814543801952113E-14, 3.944368228400681458E-32, 19.00000000000000000 ) ) ;
#242 = EDGE_LOOP ( 'NONE', ( #47 ) ) ;
#243 = CIRCLE ( 'NONE', #280, 4.000000000000007994 ) ;
#244 = PLANE ( 'NONE',  #201 ) ;
#245 = CARTESIAN_POINT ( 'NONE',  ( 4.643670180661366731E-13, -1.628780242865979995E-14, 133.0000000000000000 ) ) ;
#246 = ADVANCED_BREP_SHAPE_REPRESENTATION ( '963735', ( #178, #281, #261 ), #102 ) ;
#247 = CARTESIAN_POINT ( 'NONE',  ( 1.396592535537253737E-15, 5.259999999999997122, 0.4000000000000000777 ) ) ;
#248 = AXIS2_PLACEMENT_3D ( 'NONE', #113, #182, #140 ) ;
#249 = CONICAL_SURFACE ( 'NONE', #232, 4.749999999999992006, 0.5235987755982924874 ) ;
#250 = PLANE ( 'NONE',  #183 ) ;
#251 = CC_DESIGN_PERSON_AND_ORGANIZATION_ASSIGNMENT ( #64, #25, ( #45 ) ) ;
#252 = DIRECTION ( 'NONE',  ( -3.491481338843133355E-15, 1.224646799147353207E-16, -1.000000000000000000 ) ) ;
#253 = COORDINATED_UNIVERSAL_TIME_OFFSET ( 1, 0, .AHEAD. ) ;
#254 =( NAMED_UNIT ( * ) SI_UNIT ( $, .STERADIAN. ) SOLID_ANGLE_UNIT ( ) );
#255 = VERTEX_POINT ( 'NONE', #165 ) ;
#256 = LOCAL_TIME ( 9, 11, 5.000000000000000000, #253 ) ;
#257 = DIRECTION ( 'NONE',  ( 1.000000000000000000, 0.0000000000000000000, 0.0000000000000000000 ) ) ;
#258 = PRODUCT_RELATED_PRODUCT_CATEGORY ( 'detail', '', ( #230 ) ) ;
#259 = CARTESIAN_POINT ( 'NONE',  ( 1.396592535537251370E-15, -4.898587196589405680E-17, 0.3999999999999994116 ) ) ;
#260 = EDGE_LOOP ( 'NONE', ( #131 ) ) ;
#261 = AXIS2_PLACEMENT_3D ( 'NONE', #278, #84, #257 ) ;
#262 = EDGE_LOOP ( 'NONE', ( #235 ) ) ;
#263 = ADVANCED_FACE ( 'NONE', ( #98, #33 ), #52, .T. ) ;
#264 = DIRECTION ( 'NONE',  ( -3.491481338843133355E-15, 1.224646799147353207E-16, -1.000000000000000000 ) ) ;
#265 = DIRECTION ( 'NONE',  ( -3.491481338843133355E-15, 1.224646799147353207E-16, -1.000000000000000000 ) ) ;
#266 = CYLINDRICAL_SURFACE ( 'NONE', #248, 4.750000000000000000 ) ;
#267 = CONICAL_SURFACE ( 'NONE', #93, 5.259999999999997122, 0.7853981633974447263 ) ;
#268 = CARTESIAN_POINT ( 'NONE',  ( 2.464511900613664802E-30, -8.644344098219123180E-32, 7.058642625969914516E-16 ) ) ;
#269 = DIRECTION ( 'NONE',  ( 4.275831445896958607E-31, 1.000000000000000000, 1.224646799147353207E-16 ) ) ;
#270 = FACE_OUTER_BOUND ( 'NONE', #260, .T. ) ;
#271 = EDGE_CURVE ( 'NONE', #210, #210, #97, .T. ) ;
#272 = DIRECTION ( 'NONE',  ( 0.0000000000000000000, 1.000000000000000000, 0.0000000000000000000 ) ) ;
#273 = APPLICATION_PROTOCOL_DEFINITION ( 'international standard', 'config_control_design', 1994, #63 ) ;
#274 = DATE_TIME_ROLE ( 'creation_date' ) ;
#275 = EDGE_CURVE ( 'NONE', #163, #163, #243, .T. ) ;
#276 = CARTESIAN_POINT ( 'NONE',  ( 3.037588764793525640E-13, 4.749999999999997335, 87.00000000000000000 ) ) ;
#277 = PERSON_AND_ORGANIZATION_ROLE ( 'creator' ) ;
#278 = CARTESIAN_POINT ( 'NONE',  ( 0.0000000000000000000, 0.0000000000000000000, 0.0000000000000000000 ) ) ;
#279 = APPROVAL ( #14, 'UNSPECIFIED' ) ;
#280 = AXIS2_PLACEMENT_3D ( 'NONE', #245, #79, #181 ) ;
#281 = MANIFOLD_SOLID_BREP ( 'Corps-Déplacer/Copier1[2]', #7 ) ;
#282 = DIRECTION ( 'NONE',  ( 0.0000000000000000000, 1.000000000000000000, 0.0000000000000000000 ) ) ;
#283 = CALENDAR_DATE ( 2021, 2, 12 ) ;
ENDSEC;
END-ISO-10303-21;
