ISO-10303-21;
HEADER;
FILE_DESCRIPTION (( 'STEP AP203' ),
    '1' );
FILE_NAME ('963734.step',
    '2021-12-02T08:11:04',
    ( '' ),
    ( '' ),
    'SwSTEP 2.0',
    'SolidWorks 2019',
    '' );
FILE_SCHEMA (( 'CONFIG_CONTROL_DESIGN' ));
ENDSEC;

DATA;
#1 = DATE_TIME_ROLE ( 'creation_date' ) ;
#2 = MANIFOLD_SOLID_BREP ( 'Corps-Déplacer/Copier1[1]', #155 ) ;
#3 = APPROVAL_STATUS ( 'not_yet_approved' ) ;
#4 = LOCAL_TIME ( 9, 11, 4.000000000000000000, #132 ) ;
#5 = AXIS2_PLACEMENT_3D ( 'NONE', #68, #170, #67 ) ;
#6 = EDGE_LOOP ( 'NONE', ( #10 ) ) ;
#7 = AXIS2_PLACEMENT_3D ( 'NONE', #145, #85, #165 ) ;
#8 = EDGE_LOOP ( 'NONE', ( #15 ) ) ;
#9 = CC_DESIGN_DATE_AND_TIME_ASSIGNMENT ( #43, #1, ( #168 ) ) ;
#10 = ORIENTED_EDGE ( 'NONE', *, *, #62, .F. ) ;
#11 = DIRECTION ( 'NONE',  ( 4.397937075670189008E-31, 1.000000000000000000, 1.237909235949197005E-16 ) ) ;
#12 = CARTESIAN_POINT ( 'NONE',  ( 4.608755367272936534E-13, 4.999999999999991118, 132.0000000000000000 ) ) ;
#13 = DIRECTION ( 'NONE',  ( 0.0000000000000000000, 1.000000000000000000, 0.0000000000000000000 ) ) ;
#14 = DIRECTION ( 'NONE',  ( -3.491481338843133355E-15, 1.224646799147353207E-16, -1.000000000000000000 ) ) ;
#15 = ORIENTED_EDGE ( 'NONE', *, *, #41, .F. ) ;
#16 = CARTESIAN_POINT ( 'NONE',  ( 4.608755367272936534E-13, -1.616533774874506480E-14, 132.0000000000000000 ) ) ;
#17 = DIRECTION ( 'NONE',  ( 0.0000000000000000000, 1.000000000000000000, 0.0000000000000000000 ) ) ;
#18 = APPROVAL_DATE_TIME ( #193, #120 ) ;
#19 = PRODUCT_RELATED_PRODUCT_CATEGORY ( 'detail', '', ( #21 ) ) ;
#20 = APPLICATION_PROTOCOL_DEFINITION ( 'international standard', 'config_control_design', 1994, #65 ) ;
#21 = PRODUCT ( '963734', '963734', '', ( #113 ) ) ;
#22 = APPROVAL_ROLE ( '' ) ;
#23 = CC_DESIGN_PERSON_AND_ORGANIZATION_ASSIGNMENT ( #219, #267, ( #156 ) ) ;
#24 = APPROVAL_DATE_TIME ( #153, #200 ) ;
#25 = PERSON_AND_ORGANIZATION_ROLE ( 'design_owner' ) ;
#26 = CC_DESIGN_DATE_AND_TIME_ASSIGNMENT ( #152, #46, ( #238 ) ) ;
#27 = ORIENTED_EDGE ( 'NONE', *, *, #94, .F. ) ;
#28 = EDGE_LOOP ( 'NONE', ( #222 ) ) ;
#29 = CARTESIAN_POINT ( 'NONE',  ( 1.396592535537251370E-15, -4.898587196589405680E-17, 0.3999999999999994116 ) ) ;
#30 = CIRCLE ( 'NONE', #223, 5.254999999999999893 ) ;
#31 = CIRCLE ( 'NONE', #281, 4.000000000000007994 ) ;
#32 = FACE_OUTER_BOUND ( 'NONE', #174, .T. ) ;
#33 = EDGE_LOOP ( 'NONE', ( #138 ) ) ;
#34 = CARTESIAN_POINT ( 'NONE',  ( 1.396592535537253737E-15, 5.254999999999997229, 0.4000000000000000777 ) ) ;
#35 = CARTESIAN_POINT ( 'NONE',  ( 4.762305776150420064E-31, -1.670392008240257352E-32, 1.363978585011816581E-16 ) ) ;
#36 = ORIENTED_EDGE ( 'NONE', *, *, #115, .F. ) ;
#37 = CC_DESIGN_APPROVAL ( #282, ( #156 ) ) ;
#38 = CLOSED_SHELL ( 'NONE', ( #140, #149, #197, #121 ) ) ;
#39 = DIRECTION ( 'NONE',  ( 3.491481338843133355E-15, -1.224646799147353207E-16, 1.000000000000000000 ) ) ;
#40 = DIRECTION ( 'NONE',  ( 3.491481338843133355E-15, -1.224646799147353207E-16, 1.000000000000000000 ) ) ;
#41 = EDGE_CURVE ( 'NONE', #66, #66, #57, .T. ) ;
#42 = DIRECTION ( 'NONE',  ( -3.491481338843133355E-15, 1.224646799147353207E-16, -1.000000000000000000 ) ) ;
#43 = DATE_AND_TIME ( #241, #4 ) ;
#44 = DATE_AND_TIME ( #242, #243 ) ;
#45 = LOCAL_TIME ( 9, 11, 4.000000000000000000, #93 ) ;
#46 = DATE_TIME_ROLE ( 'classification_date' ) ;
#47 = PERSON_AND_ORGANIZATION ( #226, #99 ) ;
#48 = AXIS2_PLACEMENT_3D ( 'NONE', #159, #259, #76 ) ;
#49 = CC_DESIGN_PERSON_AND_ORGANIZATION_ASSIGNMENT ( #283, #191, ( #156 ) ) ;
#50 = EDGE_LOOP ( 'NONE', ( #36 ) ) ;
#51 = ADVANCED_FACE ( 'NONE', ( #225, #119 ), #101, .T. ) ;
#52 = EDGE_LOOP ( 'NONE', ( #117 ) ) ;
#53 = ORIENTED_EDGE ( 'NONE', *, *, #246, .F. ) ;
#54 = VERTEX_POINT ( 'NONE', #82 ) ;
#55 = APPROVAL_PERSON_ORGANIZATION ( #47, #282, #221 ) ;
#56 = PLANE ( 'NONE',  #142 ) ;
#57 = CIRCLE ( 'NONE', #254, 4.750000000000007994 ) ;
#58 = AXIS2_PLACEMENT_3D ( 'NONE', #239, #40, #261 ) ;
#59 = CARTESIAN_POINT ( 'NONE',  ( 6.633814543801952113E-14, 3.940618828944027608E-32, 19.00000000000000000 ) ) ;
#60 = CARTESIAN_POINT ( 'NONE',  ( 4.643670180661366731E-13, 3.999999999999991562, 133.0000000000000000 ) ) ;
#61 = FACE_OUTER_BOUND ( 'NONE', #118, .T. ) ;
#62 = EDGE_CURVE ( 'NONE', #278, #278, #169, .T. ) ;
#63 = FACE_BOUND ( 'NONE', #98, .T. ) ;
#64 = LOCAL_TIME ( 9, 11, 4.000000000000000000, #70 ) ;
#65 = APPLICATION_CONTEXT ( 'configuration controlled 3d designs of mechanical parts and assemblies' ) ;
#66 = VERTEX_POINT ( 'NONE', #182 ) ;
#67 = DIRECTION ( 'NONE',  ( 1.000000000000000000, 0.0000000000000000000, 0.0000000000000000000 ) ) ;
#68 = CARTESIAN_POINT ( 'NONE',  ( 0.0000000000000000000, 0.0000000000000000000, 0.0000000000000000000 ) ) ;
#69 = COORDINATED_UNIVERSAL_TIME_OFFSET ( 1, 0, .AHEAD. ) ;
#70 = COORDINATED_UNIVERSAL_TIME_OFFSET ( 1, 0, .AHEAD. ) ;
#71 = CALENDAR_DATE ( 2021, 2, 12 ) ;
#72 = CC_DESIGN_PERSON_AND_ORGANIZATION_ASSIGNMENT ( #150, #134, ( #168 ) ) ;
#73 = EDGE_CURVE ( 'NONE', #54, #54, #74, .T. ) ;
#74 = CIRCLE ( 'NONE', #48, 5.254999999999999893 ) ;
#75 = ORIENTED_EDGE ( 'NONE', *, *, #265, .F. ) ;
#76 = DIRECTION ( 'NONE',  ( 0.0000000000000000000, 1.000000000000000000, 0.0000000000000000000 ) ) ;
#77 = FACE_OUTER_BOUND ( 'NONE', #157, .T. ) ;
#78 = CC_DESIGN_PERSON_AND_ORGANIZATION_ASSIGNMENT ( #196, #25, ( #21 ) ) ;
#79 = CYLINDRICAL_SURFACE ( 'NONE', #96, 5.000000000000004441 ) ;
#80 = AXIS2_PLACEMENT_3D ( 'NONE', #252, #14, #258 ) ;
#81 = CARTESIAN_POINT ( 'NONE',  ( 4.643670180661366731E-13, -1.628780242865979995E-14, 133.0000000000000000 ) ) ;
#82 = CARTESIAN_POINT ( 'NONE',  ( 6.633814543801952113E-14, 5.254999999999997229, 19.00000000000000000 ) ) ;
#83 = ORIENTED_EDGE ( 'NONE', *, *, #41, .T. ) ;
#84 = ADVANCED_FACE ( 'NONE', ( #61 ), #158, .F. ) ;
#85 = DIRECTION ( 'NONE',  ( -3.491481338843133355E-15, 1.224646799147353207E-16, -1.000000000000000000 ) ) ;
#86 = VERTEX_POINT ( 'NONE', #148 ) ;
#87 = CONICAL_SURFACE ( 'NONE', #122, 4.000000000000007994, 0.7853981633974479459 ) ;
#88 = DIRECTION ( 'NONE',  ( 0.0000000000000000000, 1.000000000000000000, 0.0000000000000000000 ) ) ;
#89 = SECURITY_CLASSIFICATION_LEVEL ( 'unclassified' ) ;
#90 = AXIS2_PLACEMENT_3D ( 'NONE', #240, #209, #106 ) ;
#91 = APPROVAL_ROLE ( '' ) ;
#92 = AXIS2_PLACEMENT_3D ( 'NONE', #16, #42, #17 ) ;
#93 = COORDINATED_UNIVERSAL_TIME_OFFSET ( 1, 0, .AHEAD. ) ;
#94 = EDGE_CURVE ( 'NONE', #141, #141, #31, .T. ) ;
#95 = EDGE_LOOP ( 'NONE', ( #136 ) ) ;
#96 = AXIS2_PLACEMENT_3D ( 'NONE', #102, #255, #207 ) ;
#97 = EDGE_LOOP ( 'NONE', ( #185 ) ) ;
#98 = EDGE_LOOP ( 'NONE', ( #75 ) ) ;
#99 = ORGANIZATION ( 'UNSPECIFIED', 'UNSPECIFIED', '' ) ;
#100 = DIRECTION ( 'NONE',  ( -3.491481338843133355E-15, 1.224646799147353207E-16, -1.000000000000000000 ) ) ;
#101 = CYLINDRICAL_SURFACE ( 'NONE', #218, 4.750000000000000000 ) ;
#102 = CARTESIAN_POINT ( 'NONE',  ( 0.0000000000000000000, 0.0000000000000000000, 0.0000000000000000000 ) ) ;
#103 = CARTESIAN_POINT ( 'NONE',  ( 6.939209408965984467E-14, -2.433947017491189393E-15, 19.87468565782230812 ) ) ;
#104 = DIRECTION ( 'NONE',  ( -3.491481338843133355E-15, 1.224646799147353207E-16, -1.000000000000000000 ) ) ;
#105 = ADVANCED_FACE ( 'NONE', ( #275, #271 ), #87, .T. ) ;
#106 = DIRECTION ( 'NONE',  ( 0.0000000000000000000, 1.000000000000000000, 0.0000000000000000000 ) ) ;
#107 = DIRECTION ( 'NONE',  ( 4.275831445896958607E-31, 1.000000000000000000, 1.224646799147353207E-16 ) ) ;
#108 = CARTESIAN_POINT ( 'NONE',  ( 6.633814543801952113E-14, -2.326828918379970970E-15, 19.00000000000000000 ) ) ;
#109 = FACE_OUTER_BOUND ( 'NONE', #199, .T. ) ;
#110 = TOROIDAL_SURFACE ( 'NONE', #269, 6.750000000000007994, 2.000000000000001776 ) ;
#111 = APPROVAL_DATE_TIME ( #44, #282 ) ;
#112 = ADVANCED_FACE ( 'NONE', ( #162, #183 ), #110, .F. ) ;
#113 = MECHANICAL_CONTEXT ( 'NONE', #65, 'mechanical' ) ;
#114 = APPROVAL_STATUS ( 'not_yet_approved' ) ;
#115 = EDGE_CURVE ( 'NONE', #86, #86, #248, .T. ) ;
#116 =( NAMED_UNIT ( * ) PLANE_ANGLE_UNIT ( ) SI_UNIT ( $, .RADIAN. ) );
#117 = ORIENTED_EDGE ( 'NONE', *, *, #94, .T. ) ;
#118 = EDGE_LOOP ( 'NONE', ( #27 ) ) ;
#119 = FACE_OUTER_BOUND ( 'NONE', #208, .T. ) ;
#120 = APPROVAL ( #114, 'UNSPECIFIED' ) ;
#121 = ADVANCED_FACE ( 'NONE', ( #77 ), #56, .T. ) ;
#122 = AXIS2_PLACEMENT_3D ( 'NONE', #81, #146, #236 ) ;
#123 = DIRECTION ( 'NONE',  ( -3.491481338843133355E-15, 1.224646799147353207E-16, -1.000000000000000000 ) ) ;
#124 = VERTEX_POINT ( 'NONE', #230 ) ;
#125 = CARTESIAN_POINT ( 'NONE',  ( 0.0000000000000000000, 0.0000000000000000000, 0.0000000000000000000 ) ) ;
#126 = DIRECTION ( 'NONE',  ( 3.491481338843133355E-15, -1.224646799147353207E-16, 1.000000000000000000 ) ) ;
#127 = EDGE_LOOP ( 'NONE', ( #224 ) ) ;
#128 = DIRECTION ( 'NONE',  ( -4.275831445896958607E-31, -1.000000000000000000, -1.224646799147353207E-16 ) ) ;
#129 = APPROVAL_STATUS ( 'not_yet_approved' ) ;
#130 = AXIS2_PLACEMENT_3D ( 'NONE', #35, #126, #128 ) ;
#131 =( NAMED_UNIT ( * ) SI_UNIT ( $, .STERADIAN. ) SOLID_ANGLE_UNIT ( ) );
#132 = COORDINATED_UNIVERSAL_TIME_OFFSET ( 1, 0, .AHEAD. ) ;
#133 = ORIENTED_EDGE ( 'NONE', *, *, #73, .T. ) ;
#134 = PERSON_AND_ORGANIZATION_ROLE ( 'creator' ) ;
#135 = CC_DESIGN_SECURITY_CLASSIFICATION ( #238, ( #156 ) ) ;
#136 = ORIENTED_EDGE ( 'NONE', *, *, #213, .T. ) ;
#137 = CIRCLE ( 'NONE', #190, 4.749999999999992006 ) ;
#138 = ORIENTED_EDGE ( 'NONE', *, *, #251, .T. ) ;
#139 = ADVANCED_BREP_SHAPE_REPRESENTATION ( '963734', ( #2, #186, #5 ), #217 ) ;
#140 = ADVANCED_FACE ( 'NONE', ( #232 ), #234, .F. ) ;
#141 = VERTEX_POINT ( 'NONE', #60 ) ;
#142 = AXIS2_PLACEMENT_3D ( 'NONE', #59, #164, #143 ) ;
#143 = DIRECTION ( 'NONE',  ( -4.275831445896958607E-31, -1.000000000000000000, -1.224646799147353207E-16 ) ) ;
#144 = VERTEX_POINT ( 'NONE', #12 ) ;
#145 = CARTESIAN_POINT ( 'NONE',  ( 3.071394887490858903E-13, -1.077300306903406976E-14, 87.96824583655184426 ) ) ;
#146 = DIRECTION ( 'NONE',  ( -3.491481338843133355E-15, 1.224646799147353207E-16, -1.000000000000000000 ) ) ;
#147 = FACE_OUTER_BOUND ( 'NONE', #28, .T. ) ;
#148 = CARTESIAN_POINT ( 'NONE',  ( 3.071394887490858903E-13, 4.999999999999990230, 87.96824583655184426 ) ) ;
#149 = ADVANCED_FACE ( 'NONE', ( #63, #147 ), #175, .T. ) ;
#150 = PERSON_AND_ORGANIZATION ( #226, #99 ) ;
#151 = CALENDAR_DATE ( 2021, 2, 12 ) ;
#152 = DATE_AND_TIME ( #173, #194 ) ;
#153 = DATE_AND_TIME ( #71, #64 ) ;
#154 = PERSON_AND_ORGANIZATION ( #226, #99 ) ;
#155 = CLOSED_SHELL ( 'NONE', ( #229, #188, #51, #112, #205, #105, #84 ) ) ;
#156 = PRODUCT_DEFINITION_FORMATION_WITH_SPECIFIED_SOURCE ( 'ANY', '', #21, .NOT_KNOWN. ) ;
#157 = EDGE_LOOP ( 'NONE', ( #195 ) ) ;
#158 = PLANE ( 'NONE',  #231 ) ;
#159 = CARTESIAN_POINT ( 'NONE',  ( 6.633814543801952113E-14, -2.326828918379970970E-15, 19.00000000000000000 ) ) ;
#160 = DIRECTION ( 'NONE',  ( -3.491481338843133355E-15, 1.224646799147353207E-16, -1.000000000000000000 ) ) ;
#161 = AXIS2_PLACEMENT_3D ( 'NONE', #262, #39, #260 ) ;
#162 = FACE_OUTER_BOUND ( 'NONE', #8, .T. ) ;
#163 = CARTESIAN_POINT ( 'NONE',  ( 6.633814543801952113E-14, 5.254999999999997229, 19.00000000000000000 ) ) ;
#164 = DIRECTION ( 'NONE',  ( 3.491481338843133355E-15, -1.224646799147353207E-16, 1.000000000000000000 ) ) ;
#165 = DIRECTION ( 'NONE',  ( 0.0000000000000000000, 1.000000000000000000, 0.0000000000000000000 ) ) ;
#166 = FACE_OUTER_BOUND ( 'NONE', #33, .T. ) ;
#167 = UNCERTAINTY_MEASURE_WITH_UNIT (LENGTH_MEASURE( 1.000000000000000082E-05 ), #233, 'distance_accuracy_value', 'NONE');
#168 = PRODUCT_DEFINITION ( 'UNKNOWN', '', #156, #264 ) ;
#169 = CIRCLE ( 'NONE', #202, 5.254999999999997229 ) ;
#170 = DIRECTION ( 'NONE',  ( 0.0000000000000000000, 0.0000000000000000000, 1.000000000000000000 ) ) ;
#171 = CC_DESIGN_PERSON_AND_ORGANIZATION_ASSIGNMENT ( #244, #266, ( #238 ) ) ;
#172 = CIRCLE ( 'NONE', #80, 4.855000000000001315 ) ;
#173 = CALENDAR_DATE ( 2021, 2, 12 ) ;
#174 = EDGE_LOOP ( 'NONE', ( #133 ) ) ;
#175 = CONICAL_SURFACE ( 'NONE', #58, 5.254999999999997229, 0.7853981633974441712 ) ;
#176 = ORIENTED_EDGE ( 'NONE', *, *, #265, .T. ) ;
#177 = ORIENTED_EDGE ( 'NONE', *, *, #73, .F. ) ;
#178 = APPROVAL_PERSON_ORGANIZATION ( #220, #200, #91 ) ;
#179 = EDGE_LOOP ( 'NONE', ( #177 ) ) ;
#180 = DIRECTION ( 'NONE',  ( -3.491481338843133355E-15, 1.224646799147353207E-16, -1.000000000000000000 ) ) ;
#181 = DIRECTION ( 'NONE',  ( -3.491481338843133355E-15, 1.224646799147353207E-16, -1.000000000000000000 ) ) ;
#182 = CARTESIAN_POINT ( 'NONE',  ( 3.037588764793525640E-13, 4.749999999999997335, 87.00000000000000000 ) ) ;
#183 = FACE_OUTER_BOUND ( 'NONE', #97, .T. ) ;
#184 = DIRECTION ( 'NONE',  ( 4.275831445896958607E-31, 1.000000000000000000, 1.224646799147353207E-16 ) ) ;
#185 = ORIENTED_EDGE ( 'NONE', *, *, #115, .T. ) ;
#186 = MANIFOLD_SOLID_BREP ( 'Corps-Déplacer/Copier1[2]', #38 ) ;
#187 = PLANE ( 'NONE',  #161 ) ;
#188 = ADVANCED_FACE ( 'NONE', ( #274, #215 ), #256, .T. ) ;
#189 = CYLINDRICAL_SURFACE ( 'NONE', #228, 5.254999999999999005 ) ;
#190 = AXIS2_PLACEMENT_3D ( 'NONE', #103, #160, #272 ) ;
#191 = PERSON_AND_ORGANIZATION_ROLE ( 'creator' ) ;
#192 = APPLICATION_PROTOCOL_DEFINITION ( 'international standard', 'config_control_design', 1994, #280 ) ;
#193 = DATE_AND_TIME ( #151, #45 ) ;
#194 = LOCAL_TIME ( 9, 11, 4.000000000000000000, #69 ) ;
#195 = ORIENTED_EDGE ( 'NONE', *, *, #251, .F. ) ;
#196 = PERSON_AND_ORGANIZATION ( #226, #99 ) ;
#197 = ADVANCED_FACE ( 'NONE', ( #237, #166 ), #189, .T. ) ;
#198 = CC_DESIGN_APPROVAL ( #120, ( #168 ) ) ;
#199 = EDGE_LOOP ( 'NONE', ( #247 ) ) ;
#200 = APPROVAL ( #3, 'UNSPECIFIED' ) ;
#201 = CARTESIAN_POINT ( 'NONE',  ( 0.0000000000000000000, 0.0000000000000000000, 0.0000000000000000000 ) ) ;
#202 = AXIS2_PLACEMENT_3D ( 'NONE', #29, #203, #11 ) ;
#203 = DIRECTION ( 'NONE',  ( -3.491481338843133355E-15, 1.224646799147353207E-16, -1.000000000000000000 ) ) ;
#204 = VERTEX_POINT ( 'NONE', #235 ) ;
#205 = ADVANCED_FACE ( 'NONE', ( #214, #109 ), #79, .T. ) ;
#206 = DIRECTION ( 'NONE',  ( 4.275831445896959482E-31, 1.000000000000000000, 1.224646799147353207E-16 ) ) ;
#207 = DIRECTION ( 'NONE',  ( 4.275831445896958607E-31, 1.000000000000000000, 1.224646799147353454E-16 ) ) ;
#208 = EDGE_LOOP ( 'NONE', ( #83 ) ) ;
#209 = DIRECTION ( 'NONE',  ( -3.491481338843133355E-15, 1.224646799147353207E-16, -1.000000000000000000 ) ) ;
#210 = PRODUCT_DEFINITION_SHAPE ( 'NONE', 'NONE',  #168 ) ;
#211 = APPROVAL_PERSON_ORGANIZATION ( #154, #120, #22 ) ;
#212 = DIRECTION ( 'NONE',  ( 4.275831445896958607E-31, 1.000000000000000000, 1.224646799147353207E-16 ) ) ;
#213 = EDGE_CURVE ( 'NONE', #124, #124, #137, .T. ) ;
#214 = FACE_OUTER_BOUND ( 'NONE', #50, .T. ) ;
#215 = FACE_BOUND ( 'NONE', #95, .T. ) ;
#216 = COORDINATED_UNIVERSAL_TIME_OFFSET ( 1, 0, .AHEAD. ) ;
#217 =( GEOMETRIC_REPRESENTATION_CONTEXT ( 3 ) GLOBAL_UNCERTAINTY_ASSIGNED_CONTEXT ( ( #167 ) ) GLOBAL_UNIT_ASSIGNED_CONTEXT ( ( #233, #116, #131 ) ) REPRESENTATION_CONTEXT ( 'NONE', 'WORKASPACE' ) );
#218 = AXIS2_PLACEMENT_3D ( 'NONE', #201, #100, #206 ) ;
#219 = PERSON_AND_ORGANIZATION ( #226, #99 ) ;
#220 = PERSON_AND_ORGANIZATION ( #226, #99 ) ;
#221 = APPROVAL_ROLE ( '' ) ;
#222 = ORIENTED_EDGE ( 'NONE', *, *, #62, .T. ) ;
#223 = AXIS2_PLACEMENT_3D ( 'NONE', #108, #279, #88 ) ;
#224 = ORIENTED_EDGE ( 'NONE', *, *, #213, .F. ) ;
#225 = FACE_OUTER_BOUND ( 'NONE', #127, .T. ) ;
#226 = PERSON ( 'UNSPECIFIED', 'UNSPECIFIED', 'UNSPECIFIED', ('UNSPECIFIED'), ('UNSPECIFIED'), ('UNSPECIFIED') ) ;
#227 = DIRECTION ( 'NONE',  ( -3.491481338843133355E-15, 1.224646799147353207E-16, -1.000000000000000000 ) ) ;
#228 = AXIS2_PLACEMENT_3D ( 'NONE', #125, #180, #184 ) ;
#229 = ADVANCED_FACE ( 'NONE', ( #32 ), #187, .F. ) ;
#230 = CARTESIAN_POINT ( 'NONE',  ( 6.939209408965984467E-14, 4.749999999999989342, 19.87468565782230812 ) ) ;
#231 = AXIS2_PLACEMENT_3D ( 'NONE', #250, #181, #212 ) ;
#232 = FACE_OUTER_BOUND ( 'NONE', #268, .T. ) ;
#233 =( LENGTH_UNIT ( ) NAMED_UNIT ( * ) SI_UNIT ( .MILLI., .METRE. ) );
#234 = PLANE ( 'NONE',  #130 ) ;
#235 = CARTESIAN_POINT ( 'NONE',  ( 3.028377322213057820E-30, 4.855000000000001315, 8.673617379884035472E-16 ) ) ;
#236 = DIRECTION ( 'NONE',  ( 0.0000000000000000000, 1.000000000000000000, 0.0000000000000000000 ) ) ;
#237 = FACE_OUTER_BOUND ( 'NONE', #6, .T. ) ;
#238 = SECURITY_CLASSIFICATION ( '', '', #89 ) ;
#239 = CARTESIAN_POINT ( 'NONE',  ( 1.396592535537251370E-15, -4.898587196589405680E-17, 0.3999999999999994116 ) ) ;
#240 = CARTESIAN_POINT ( 'NONE',  ( 6.939209408965984467E-14, -2.433947017491189393E-15, 19.87468565782230812 ) ) ;
#241 = CALENDAR_DATE ( 2021, 2, 12 ) ;
#242 = CALENDAR_DATE ( 2021, 2, 12 ) ;
#243 = LOCAL_TIME ( 9, 11, 4.000000000000000000, #216 ) ;
#244 = PERSON_AND_ORGANIZATION ( #226, #99 ) ;
#245 = SHAPE_DEFINITION_REPRESENTATION ( #210, #139 ) ;
#246 = EDGE_CURVE ( 'NONE', #144, #144, #249, .T. ) ;
#247 = ORIENTED_EDGE ( 'NONE', *, *, #246, .T. ) ;
#248 = CIRCLE ( 'NONE', #7, 5.000000000000000888 ) ;
#249 = CIRCLE ( 'NONE', #92, 5.000000000000007994 ) ;
#250 = CARTESIAN_POINT ( 'NONE',  ( 4.643670180661366731E-13, 2.999519565323696057E-32, 133.0000000000000000 ) ) ;
#251 = EDGE_CURVE ( 'NONE', #276, #276, #30, .T. ) ;
#252 = CARTESIAN_POINT ( 'NONE',  ( 9.524611552300840127E-31, -3.340784016480514705E-32, 2.727957170023633163E-16 ) ) ;
#253 = DIRECTION ( 'NONE',  ( 0.0000000000000000000, 1.000000000000000000, 0.0000000000000000000 ) ) ;
#254 = AXIS2_PLACEMENT_3D ( 'NONE', #277, #227, #13 ) ;
#255 = DIRECTION ( 'NONE',  ( -3.491481338843133355E-15, 1.224646799147353207E-16, -1.000000000000000000 ) ) ;
#256 = CONICAL_SURFACE ( 'NONE', #90, 4.749999999999992006, 0.5235987755982938197 ) ;
#257 = CARTESIAN_POINT ( 'NONE',  ( 3.037588764793525640E-13, -1.040834085586084257E-14, 87.00000000000000000 ) ) ;
#258 = DIRECTION ( 'NONE',  ( 4.275831445896958607E-31, 1.000000000000000000, 1.224646799147353207E-16 ) ) ;
#259 = DIRECTION ( 'NONE',  ( -3.491481338843133355E-15, 1.224646799147353207E-16, -1.000000000000000000 ) ) ;
#260 = DIRECTION ( 'NONE',  ( -4.275831445896958607E-31, -1.000000000000000000, -1.224646799147353207E-16 ) ) ;
#261 = DIRECTION ( 'NONE',  ( -4.397937075670189008E-31, -1.000000000000000000, -1.237909235949197005E-16 ) ) ;
#262 = CARTESIAN_POINT ( 'NONE',  ( 6.633814543801952113E-14, 3.940618828944027608E-32, 19.00000000000000000 ) ) ;
#263 = CC_DESIGN_APPROVAL ( #200, ( #238 ) ) ;
#264 = DESIGN_CONTEXT ( 'detailed design', #280, 'design' ) ;
#265 = EDGE_CURVE ( 'NONE', #204, #204, #172, .T. ) ;
#266 = PERSON_AND_ORGANIZATION_ROLE ( 'classification_officer' ) ;
#267 = PERSON_AND_ORGANIZATION_ROLE ( 'design_supplier' ) ;
#268 = EDGE_LOOP ( 'NONE', ( #176 ) ) ;
#269 = AXIS2_PLACEMENT_3D ( 'NONE', #257, #104, #107 ) ;
#270 = EDGE_LOOP ( 'NONE', ( #53 ) ) ;
#271 = FACE_BOUND ( 'NONE', #52, .T. ) ;
#272 = DIRECTION ( 'NONE',  ( 0.0000000000000000000, 1.000000000000000000, 0.0000000000000000000 ) ) ;
#273 = CARTESIAN_POINT ( 'NONE',  ( 4.643670180661366731E-13, -1.628780242865979995E-14, 133.0000000000000000 ) ) ;
#274 = FACE_OUTER_BOUND ( 'NONE', #179, .T. ) ;
#275 = FACE_OUTER_BOUND ( 'NONE', #270, .T. ) ;
#276 = VERTEX_POINT ( 'NONE', #163 ) ;
#277 = CARTESIAN_POINT ( 'NONE',  ( 3.037588764793525640E-13, -1.065442715258197209E-14, 87.00000000000000000 ) ) ;
#278 = VERTEX_POINT ( 'NONE', #34 ) ;
#279 = DIRECTION ( 'NONE',  ( -3.491481338843133355E-15, 1.224646799147353207E-16, -1.000000000000000000 ) ) ;
#280 = APPLICATION_CONTEXT ( 'configuration controlled 3d designs of mechanical parts and assemblies' ) ;
#281 = AXIS2_PLACEMENT_3D ( 'NONE', #273, #123, #253 ) ;
#282 = APPROVAL ( #129, 'UNSPECIFIED' ) ;
#283 = PERSON_AND_ORGANIZATION ( #226, #99 ) ;
ENDSEC;
END-ISO-10303-21;
