ISO-10303-21;
HEADER;
FILE_DESCRIPTION (( 'STEP AP203' ),
    '1' );
FILE_NAME ('963733.step',
    '2021-12-02T08:11:03',
    ( '' ),
    ( '' ),
    'SwSTEP 2.0',
    'SolidWorks 2019',
    '' );
FILE_SCHEMA (( 'CONFIG_CONTROL_DESIGN' ));
ENDSEC;

DATA;
#1 = ORIENTED_EDGE ( 'NONE', *, *, #252, .F. ) ;
#2 = FACE_OUTER_BOUND ( 'NONE', #282, .T. ) ;
#3 = APPROVAL ( #193, 'UNSPECIFIED' ) ;
#4 = EDGE_LOOP ( 'NONE', ( #110 ) ) ;
#5 = VERTEX_POINT ( 'NONE', #80 ) ;
#6 = CARTESIAN_POINT ( 'NONE',  ( 0.0000000000000000000, 0.0000000000000000000, 0.0000000000000000000 ) ) ;
#7 = COORDINATED_UNIVERSAL_TIME_OFFSET ( 1, 0, .AHEAD. ) ;
#8 = CC_DESIGN_APPROVAL ( #61, ( #143 ) ) ;
#9 = DIRECTION ( 'NONE',  ( 4.275831445896959482E-31, 1.000000000000000000, 1.224646799147353207E-16 ) ) ;
#10 =( LENGTH_UNIT ( ) NAMED_UNIT ( * ) SI_UNIT ( .MILLI., .METRE. ) );
#11 = APPROVAL ( #246, 'UNSPECIFIED' ) ;
#12 = CYLINDRICAL_SURFACE ( 'NONE', #181, 5.244999999999999218 ) ;
#13 = AXIS2_PLACEMENT_3D ( 'NONE', #147, #270, #249 ) ;
#14 = CC_DESIGN_APPROVAL ( #11, ( #117 ) ) ;
#15 = CALENDAR_DATE ( 2021, 2, 12 ) ;
#16 = ORIENTED_EDGE ( 'NONE', *, *, #252, .T. ) ;
#17 = PERSON_AND_ORGANIZATION ( #63, #112 ) ;
#18 = APPROVAL_STATUS ( 'not_yet_approved' ) ;
#19 = PERSON_AND_ORGANIZATION ( #63, #112 ) ;
#20 = LOCAL_TIME ( 9, 11, 3.000000000000000000, #106 ) ;
#21 = DIRECTION ( 'NONE',  ( -3.491481338843133355E-15, 1.224646799147353207E-16, -1.000000000000000000 ) ) ;
#22 = APPROVAL_PERSON_ORGANIZATION ( #125, #11, #206 ) ;
#23 = DESIGN_CONTEXT ( 'detailed design', #259, 'design' ) ;
#24 = EDGE_LOOP ( 'NONE', ( #219 ) ) ;
#25 = CARTESIAN_POINT ( 'NONE',  ( 3.037588764793525640E-13, -1.040834085586084257E-14, 87.00000000000000000 ) ) ;
#26 = ADVANCED_BREP_SHAPE_REPRESENTATION ( '963733', ( #42, #238, #144 ), #256 ) ;
#27 = CC_DESIGN_PERSON_AND_ORGANIZATION_ASSIGNMENT ( #253, #211, ( #143 ) ) ;
#28 = FACE_OUTER_BOUND ( 'NONE', #84, .T. ) ;
#29 = FACE_OUTER_BOUND ( 'NONE', #276, .T. ) ;
#30 = CYLINDRICAL_SURFACE ( 'NONE', #161, 5.000000000000004441 ) ;
#31 = DIRECTION ( 'NONE',  ( 3.491481338843133355E-15, -1.224646799147353207E-16, 1.000000000000000000 ) ) ;
#32 = APPLICATION_PROTOCOL_DEFINITION ( 'international standard', 'config_control_design', 1994, #248 ) ;
#33 = CARTESIAN_POINT ( 'NONE',  ( 4.643670180661366731E-13, -1.628780242865979995E-14, 133.0000000000000000 ) ) ;
#34 = FACE_OUTER_BOUND ( 'NONE', #202, .T. ) ;
#35 = SECURITY_CLASSIFICATION_LEVEL ( 'unclassified' ) ;
#36 = DATE_AND_TIME ( #167, #138 ) ;
#37 = ADVANCED_FACE ( 'NONE', ( #176, #241 ), #214, .F. ) ;
#38 = EDGE_LOOP ( 'NONE', ( #191 ) ) ;
#39 = CIRCLE ( 'NONE', #227, 5.245000000000000107 ) ;
#40 = DIRECTION ( 'NONE',  ( 0.0000000000000000000, 1.000000000000000000, 0.0000000000000000000 ) ) ;
#41 = ORIENTED_EDGE ( 'NONE', *, *, #47, .F. ) ;
#42 = MANIFOLD_SOLID_BREP ( 'Corps-Déplacer/Copier1[1]', #278 ) ;
#43 = DIRECTION ( 'NONE',  ( 4.406322084394058796E-31, 1.000000000000000000, 1.240269406084466901E-16 ) ) ;
#44 = VERTEX_POINT ( 'NONE', #145 ) ;
#45 = AXIS2_PLACEMENT_3D ( 'NONE', #46, #283, #90 ) ;
#46 = CARTESIAN_POINT ( 'NONE',  ( 6.933161985893430721E-14, -2.431825867013740094E-15, 19.85736514974662015 ) ) ;
#47 = EDGE_CURVE ( 'NONE', #185, #185, #224, .T. ) ;
#48 = CARTESIAN_POINT ( 'NONE',  ( 6.633814543801952113E-14, 5.244999999999998330, 19.00000000000000000 ) ) ;
#49 = FACE_OUTER_BOUND ( 'NONE', #69, .T. ) ;
#50 = CARTESIAN_POINT ( 'NONE',  ( 6.633814543801952113E-14, -2.326828918379970970E-15, 19.00000000000000000 ) ) ;
#51 = VERTEX_POINT ( 'NONE', #148 ) ;
#52 = ADVANCED_FACE ( 'NONE', ( #157 ), #201, .T. ) ;
#53 = AXIS2_PLACEMENT_3D ( 'NONE', #115, #263, #40 ) ;
#54 = CARTESIAN_POINT ( 'NONE',  ( 0.0000000000000000000, 0.0000000000000000000, 0.0000000000000000000 ) ) ;
#55 = FACE_OUTER_BOUND ( 'NONE', #257, .T. ) ;
#56 = DATE_AND_TIME ( #15, #280 ) ;
#57 = DATE_AND_TIME ( #154, #20 ) ;
#58 = PRODUCT_RELATED_PRODUCT_CATEGORY ( 'detail', '', ( #194 ) ) ;
#59 = ORIENTED_EDGE ( 'NONE', *, *, #133, .T. ) ;
#60 = PERSON_AND_ORGANIZATION_ROLE ( 'classification_officer' ) ;
#61 = APPROVAL ( #18, 'UNSPECIFIED' ) ;
#62 = AXIS2_PLACEMENT_3D ( 'NONE', #93, #264, #174 ) ;
#63 = PERSON ( 'UNSPECIFIED', 'UNSPECIFIED', 'UNSPECIFIED', ('UNSPECIFIED'), ('UNSPECIFIED'), ('UNSPECIFIED') ) ;
#64 = UNCERTAINTY_MEASURE_WITH_UNIT (LENGTH_MEASURE( 1.000000000000000082E-05 ), #10, 'distance_accuracy_value', 'NONE');
#65 = ORIENTED_EDGE ( 'NONE', *, *, #47, .T. ) ;
#66 = ORIENTED_EDGE ( 'NONE', *, *, #74, .F. ) ;
#67 = AXIS2_PLACEMENT_3D ( 'NONE', #124, #95, #160 ) ;
#68 = DIRECTION ( 'NONE',  ( -3.491481338843133355E-15, 1.224646799147353207E-16, -1.000000000000000000 ) ) ;
#69 = EDGE_LOOP ( 'NONE', ( #266 ) ) ;
#70 = PLANE ( 'NONE',  #235 ) ;
#71 = CARTESIAN_POINT ( 'NONE',  ( 0.0000000000000000000, 0.0000000000000000000, 0.0000000000000000000 ) ) ;
#72 = FACE_BOUND ( 'NONE', #189, .T. ) ;
#73 = ADVANCED_FACE ( 'NONE', ( #2, #118 ), #207, .T. ) ;
#74 = EDGE_CURVE ( 'NONE', #51, #51, #108, .T. ) ;
#75 = FACE_OUTER_BOUND ( 'NONE', #155, .T. ) ;
#76 = AXIS2_PLACEMENT_3D ( 'NONE', #175, #68, #220 ) ;
#77 = FACE_OUTER_BOUND ( 'NONE', #232, .T. ) ;
#78 = CARTESIAN_POINT ( 'NONE',  ( 6.933161985893430721E-14, 4.749999999999989342, 19.85736514974662015 ) ) ;
#79 = DIRECTION ( 'NONE',  ( 0.0000000000000000000, 0.0000000000000000000, 1.000000000000000000 ) ) ;
#80 = CARTESIAN_POINT ( 'NONE',  ( 4.608755367272936534E-13, 4.999999999999991118, 132.0000000000000000 ) ) ;
#81 = AXIS2_PLACEMENT_3D ( 'NONE', #216, #21, #197 ) ;
#82 = CARTESIAN_POINT ( 'NONE',  ( 3.071394887490858903E-13, -1.077300306903406976E-14, 87.96824583655184426 ) ) ;
#83 = ADVANCED_FACE ( 'NONE', ( #260 ), #70, .F. ) ;
#84 = EDGE_LOOP ( 'NONE', ( #139 ) ) ;
#85 = AXIS2_PLACEMENT_3D ( 'NONE', #82, #146, #183 ) ;
#86 = ADVANCED_FACE ( 'NONE', ( #72, #29 ), #123, .T. ) ;
#87 = CIRCLE ( 'NONE', #76, 4.000000000000007994 ) ;
#88 = CC_DESIGN_SECURITY_CLASSIFICATION ( #149, ( #143 ) ) ;
#89 = DIRECTION ( 'NONE',  ( -3.491481338843133355E-15, 1.224646799147353207E-16, -1.000000000000000000 ) ) ;
#90 = DIRECTION ( 'NONE',  ( 0.0000000000000000000, 1.000000000000000000, 0.0000000000000000000 ) ) ;
#91 = ORIENTED_EDGE ( 'NONE', *, *, #172, .T. ) ;
#92 = CONICAL_SURFACE ( 'NONE', #250, 4.000000000000007994, 0.7853981633974479459 ) ;
#93 = CARTESIAN_POINT ( 'NONE',  ( 9.567369866759809556E-31, -3.355781614307133390E-32, 2.740203638015106914E-16 ) ) ;
#94 = EDGE_CURVE ( 'NONE', #243, #243, #169, .T. ) ;
#95 = DIRECTION ( 'NONE',  ( 3.491481338843133355E-15, -1.224646799147353207E-16, 1.000000000000000000 ) ) ;
#96 = CARTESIAN_POINT ( 'NONE',  ( 3.071394887490858903E-13, 4.999999999999990230, 87.96824583655184426 ) ) ;
#97 = DIRECTION ( 'NONE',  ( 4.275831445896958607E-31, 1.000000000000000000, 1.224646799147353454E-16 ) ) ;
#98 = PERSON_AND_ORGANIZATION ( #63, #112 ) ;
#99 = AXIS2_PLACEMENT_3D ( 'NONE', #199, #239, #222 ) ;
#100 = PLANE ( 'NONE',  #268 ) ;
#101 = CC_DESIGN_APPROVAL ( #3, ( #149 ) ) ;
#102 = CYLINDRICAL_SURFACE ( 'NONE', #231, 4.750000000000000000 ) ;
#103 = DIRECTION ( 'NONE',  ( -3.491481338843133355E-15, 1.224646799147353207E-16, -1.000000000000000000 ) ) ;
#104 = VERTEX_POINT ( 'NONE', #48 ) ;
#105 = DIRECTION ( 'NONE',  ( -4.275831445896958607E-31, -1.000000000000000000, -1.224646799147353207E-16 ) ) ;
#106 = COORDINATED_UNIVERSAL_TIME_OFFSET ( 1, 0, .AHEAD. ) ;
#107 = DIRECTION ( 'NONE',  ( -3.491481338843133355E-15, 1.224646799147353207E-16, -1.000000000000000000 ) ) ;
#108 = CIRCLE ( 'NONE', #62, 4.845000000000002416 ) ;
#109 = EDGE_LOOP ( 'NONE', ( #1 ) ) ;
#110 = ORIENTED_EDGE ( 'NONE', *, *, #74, .T. ) ;
#111 = APPROVAL_DATE_TIME ( #36, #61 ) ;
#112 = ORGANIZATION ( 'UNSPECIFIED', 'UNSPECIFIED', '' ) ;
#113 = ADVANCED_FACE ( 'NONE', ( #77 ), #100, .F. ) ;
#114 = PERSON_AND_ORGANIZATION_ROLE ( 'creator' ) ;
#115 = CARTESIAN_POINT ( 'NONE',  ( 4.608755367272936534E-13, -1.616533774874506480E-14, 132.0000000000000000 ) ) ;
#116 = ORIENTED_EDGE ( 'NONE', *, *, #133, .F. ) ;
#117 = PRODUCT_DEFINITION ( 'UNKNOWN', '', #143, #23 ) ;
#118 = FACE_BOUND ( 'NONE', #38, .T. ) ;
#119 = EDGE_LOOP ( 'NONE', ( #116 ) ) ;
#120 = FACE_BOUND ( 'NONE', #173, .T. ) ;
#121 = DIRECTION ( 'NONE',  ( -4.275831445896958607E-31, -1.000000000000000000, -1.224646799147353207E-16 ) ) ;
#122 = ADVANCED_FACE ( 'NONE', ( #188 ), #225, .F. ) ;
#123 = CONICAL_SURFACE ( 'NONE', #67, 5.244999999999998330, 0.7853981633974441712 ) ;
#124 = CARTESIAN_POINT ( 'NONE',  ( 1.396592535537251370E-15, -4.898587196589405680E-17, 0.3999999999999994116 ) ) ;
#125 = PERSON_AND_ORGANIZATION ( #63, #112 ) ;
#126 = CARTESIAN_POINT ( 'NONE',  ( 1.396592535537253737E-15, 5.244999999999998330, 0.4000000000000000777 ) ) ;
#127 = VERTEX_POINT ( 'NONE', #184 ) ;
#128 = DIRECTION ( 'NONE',  ( 3.491481338843133355E-15, -1.224646799147353207E-16, 1.000000000000000000 ) ) ;
#129 = VERTEX_POINT ( 'NONE', #182 ) ;
#130 = FACE_OUTER_BOUND ( 'NONE', #244, .T. ) ;
#131 = ADVANCED_FACE ( 'NONE', ( #130, #55 ), #12, .T. ) ;
#132 = DATE_AND_TIME ( #251, #262 ) ;
#133 = EDGE_CURVE ( 'NONE', #228, #228, #177, .T. ) ;
#134 = APPROVAL_DATE_TIME ( #56, #3 ) ;
#135 = DATE_TIME_ROLE ( 'classification_date' ) ;
#136 = AXIS2_PLACEMENT_3D ( 'NONE', #25, #89, #261 ) ;
#137 = APPROVAL_ROLE ( '' ) ;
#138 = LOCAL_TIME ( 9, 11, 3.000000000000000000, #274 ) ;
#139 = ORIENTED_EDGE ( 'NONE', *, *, #230, .F. ) ;
#140 = DIRECTION ( 'NONE',  ( 3.491481338843133355E-15, -1.224646799147353207E-16, 1.000000000000000000 ) ) ;
#141 = DIRECTION ( 'NONE',  ( 0.0000000000000000000, 1.000000000000000000, 0.0000000000000000000 ) ) ;
#142 = DIRECTION ( 'NONE',  ( -3.491481338843133355E-15, 1.224646799147353207E-16, -1.000000000000000000 ) ) ;
#143 = PRODUCT_DEFINITION_FORMATION_WITH_SPECIFIED_SOURCE ( 'ANY', '', #194, .NOT_KNOWN. ) ;
#144 = AXIS2_PLACEMENT_3D ( 'NONE', #54, #79, #151 ) ;
#145 = CARTESIAN_POINT ( 'NONE',  ( 3.037588764793525640E-13, 4.749999999999997335, 87.00000000000000000 ) ) ;
#146 = DIRECTION ( 'NONE',  ( -3.491481338843133355E-15, 1.224646799147353207E-16, -1.000000000000000000 ) ) ;
#147 = CARTESIAN_POINT ( 'NONE',  ( 3.037588764793525640E-13, -1.065442715258197209E-14, 87.00000000000000000 ) ) ;
#148 = CARTESIAN_POINT ( 'NONE',  ( 3.028377322213058170E-30, 4.845000000000002416, 8.673617379884035472E-16 ) ) ;
#149 = SECURITY_CLASSIFICATION ( '', '', #35 ) ;
#150 = DIRECTION ( 'NONE',  ( -4.275831445896958607E-31, -1.000000000000000000, -1.224646799147353207E-16 ) ) ;
#151 = DIRECTION ( 'NONE',  ( 1.000000000000000000, 0.0000000000000000000, 0.0000000000000000000 ) ) ;
#152 = CC_DESIGN_PERSON_AND_ORGANIZATION_ASSIGNMENT ( #19, #166, ( #117 ) ) ;
#153 = PERSON_AND_ORGANIZATION ( #63, #112 ) ;
#154 = CALENDAR_DATE ( 2021, 2, 12 ) ;
#155 = EDGE_LOOP ( 'NONE', ( #255 ) ) ;
#156 = ADVANCED_FACE ( 'NONE', ( #247, #49 ), #30, .T. ) ;
#157 = FACE_OUTER_BOUND ( 'NONE', #178, .T. ) ;
#158 = CARTESIAN_POINT ( 'NONE',  ( 4.643670180661366731E-13, 2.999519565323696057E-32, 133.0000000000000000 ) ) ;
#159 = DIRECTION ( 'NONE',  ( -3.491481338843133355E-15, 1.224646799147353207E-16, -1.000000000000000000 ) ) ;
#160 = DIRECTION ( 'NONE',  ( -4.406322084394058796E-31, -1.000000000000000000, -1.240269406084466901E-16 ) ) ;
#161 = AXIS2_PLACEMENT_3D ( 'NONE', #6, #103, #97 ) ;
#162 = APPLICATION_PROTOCOL_DEFINITION ( 'international standard', 'config_control_design', 1994, #259 ) ;
#163 = CARTESIAN_POINT ( 'NONE',  ( 0.0000000000000000000, 0.0000000000000000000, 0.0000000000000000000 ) ) ;
#164 = DATE_AND_TIME ( #269, #254 ) ;
#165 = APPROVAL_PERSON_ORGANIZATION ( #234, #61, #190 ) ;
#166 = PERSON_AND_ORGANIZATION_ROLE ( 'creator' ) ;
#167 = CALENDAR_DATE ( 2021, 2, 12 ) ;
#168 = PERSON_AND_ORGANIZATION ( #63, #112 ) ;
#169 = CIRCLE ( 'NONE', #81, 4.749999999999992006 ) ;
#170 = ORIENTED_EDGE ( 'NONE', *, *, #204, .T. ) ;
#171 = SHAPE_DEFINITION_REPRESENTATION ( #236, #26 ) ;
#172 = EDGE_CURVE ( 'NONE', #44, #44, #198, .T. ) ;
#173 = EDGE_LOOP ( 'NONE', ( #16 ) ) ;
#174 = DIRECTION ( 'NONE',  ( 4.275831445896957731E-31, 1.000000000000000000, 1.224646799147353207E-16 ) ) ;
#175 = CARTESIAN_POINT ( 'NONE',  ( 4.643670180661366731E-13, -1.628780242865979995E-14, 133.0000000000000000 ) ) ;
#176 = FACE_OUTER_BOUND ( 'NONE', #24, .T. ) ;
#177 = CIRCLE ( 'NONE', #85, 5.000000000000000888 ) ;
#178 = EDGE_LOOP ( 'NONE', ( #217 ) ) ;
#179 = ORIENTED_EDGE ( 'NONE', *, *, #196, .T. ) ;
#180 = MECHANICAL_CONTEXT ( 'NONE', #248, 'mechanical' ) ;
#181 = AXIS2_PLACEMENT_3D ( 'NONE', #163, #107, #273 ) ;
#182 = CARTESIAN_POINT ( 'NONE',  ( 6.633814543801952113E-14, 5.244999999999998330, 19.00000000000000000 ) ) ;
#183 = DIRECTION ( 'NONE',  ( 0.0000000000000000000, 1.000000000000000000, 0.0000000000000000000 ) ) ;
#184 = CARTESIAN_POINT ( 'NONE',  ( 4.643670180661366731E-13, 3.999999999999991562, 133.0000000000000000 ) ) ;
#185 = VERTEX_POINT ( 'NONE', #126 ) ;
#186 = DATE_TIME_ROLE ( 'creation_date' ) ;
#187 = AXIS2_PLACEMENT_3D ( 'NONE', #200, #240, #43 ) ;
#188 = FACE_OUTER_BOUND ( 'NONE', #4, .T. ) ;
#189 = EDGE_LOOP ( 'NONE', ( #66 ) ) ;
#190 = APPROVAL_ROLE ( '' ) ;
#191 = ORIENTED_EDGE ( 'NONE', *, *, #94, .T. ) ;
#192 = CC_DESIGN_PERSON_AND_ORGANIZATION_ASSIGNMENT ( #153, #60, ( #149 ) ) ;
#193 = APPROVAL_STATUS ( 'not_yet_approved' ) ;
#194 = PRODUCT ( '963733', '963733', '', ( #180 ) ) ;
#195 = CIRCLE ( 'NONE', #53, 5.000000000000007994 ) ;
#196 = EDGE_CURVE ( 'NONE', #104, #104, #39, .T. ) ;
#197 = DIRECTION ( 'NONE',  ( 0.0000000000000000000, 1.000000000000000000, 0.0000000000000000000 ) ) ;
#198 = CIRCLE ( 'NONE', #13, 4.750000000000007994 ) ;
#199 = CARTESIAN_POINT ( 'NONE',  ( 6.633814543801952113E-14, -2.326828918379970970E-15, 19.00000000000000000 ) ) ;
#200 = CARTESIAN_POINT ( 'NONE',  ( 1.396592535537251370E-15, -4.898587196589405680E-17, 0.3999999999999994116 ) ) ;
#201 = PLANE ( 'NONE',  #277 ) ;
#202 = EDGE_LOOP ( 'NONE', ( #91 ) ) ;
#203 = APPROVAL_PERSON_ORGANIZATION ( #168, #3, #137 ) ;
#204 = EDGE_CURVE ( 'NONE', #129, #129, #245, .T. ) ;
#205 = CARTESIAN_POINT ( 'NONE',  ( 4.783684933379904778E-31, -1.677890807153566695E-32, 1.370101819007553457E-16 ) ) ;
#206 = APPROVAL_ROLE ( '' ) ;
#207 = CONICAL_SURFACE ( 'NONE', #45, 4.749999999999992006, 0.5235987755982931535 ) ;
#208 =( NAMED_UNIT ( * ) SI_UNIT ( $, .STERADIAN. ) SOLID_ANGLE_UNIT ( ) );
#209 = CARTESIAN_POINT ( 'NONE',  ( 6.633814543801952113E-14, 3.933120030030718265E-32, 19.00000000000000000 ) ) ;
#210 = CC_DESIGN_DATE_AND_TIME_ASSIGNMENT ( #57, #135, ( #149 ) ) ;
#211 = PERSON_AND_ORGANIZATION_ROLE ( 'design_supplier' ) ;
#212 = CC_DESIGN_PERSON_AND_ORGANIZATION_ASSIGNMENT ( #98, #267, ( #194 ) ) ;
#213 = COORDINATED_UNIVERSAL_TIME_OFFSET ( 1, 0, .AHEAD. ) ;
#214 = TOROIDAL_SURFACE ( 'NONE', #136, 6.750000000000007994, 2.000000000000001776 ) ;
#215 = CC_DESIGN_DATE_AND_TIME_ASSIGNMENT ( #132, #186, ( #117 ) ) ;
#216 = CARTESIAN_POINT ( 'NONE',  ( 6.933161985893430721E-14, -2.431825867013740094E-15, 19.85736514974662015 ) ) ;
#217 = ORIENTED_EDGE ( 'NONE', *, *, #196, .F. ) ;
#218 = CLOSED_SHELL ( 'NONE', ( #122, #86, #131, #52 ) ) ;
#219 = ORIENTED_EDGE ( 'NONE', *, *, #172, .F. ) ;
#220 = DIRECTION ( 'NONE',  ( 0.0000000000000000000, 1.000000000000000000, 0.0000000000000000000 ) ) ;
#221 = ORIENTED_EDGE ( 'NONE', *, *, #204, .F. ) ;
#222 = DIRECTION ( 'NONE',  ( 0.0000000000000000000, 1.000000000000000000, 0.0000000000000000000 ) ) ;
#223 = DIRECTION ( 'NONE',  ( 4.275831445896958607E-31, 1.000000000000000000, 1.224646799147353207E-16 ) ) ;
#224 = CIRCLE ( 'NONE', #187, 5.244999999999998330 ) ;
#225 = PLANE ( 'NONE',  #272 ) ;
#226 = APPROVAL_DATE_TIME ( #164, #11 ) ;
#227 = AXIS2_PLACEMENT_3D ( 'NONE', #50, #279, #141 ) ;
#228 = VERTEX_POINT ( 'NONE', #96 ) ;
#229 = DIRECTION ( 'NONE',  ( -3.491481338843133355E-15, 1.224646799147353207E-16, -1.000000000000000000 ) ) ;
#230 = EDGE_CURVE ( 'NONE', #5, #5, #195, .T. ) ;
#231 = AXIS2_PLACEMENT_3D ( 'NONE', #71, #229, #9 ) ;
#232 = EDGE_LOOP ( 'NONE', ( #170 ) ) ;
#233 = COORDINATED_UNIVERSAL_TIME_OFFSET ( 1, 0, .AHEAD. ) ;
#234 = PERSON_AND_ORGANIZATION ( #63, #112 ) ;
#235 = AXIS2_PLACEMENT_3D ( 'NONE', #158, #142, #223 ) ;
#236 = PRODUCT_DEFINITION_SHAPE ( 'NONE', 'NONE',  #117 ) ;
#237 = CARTESIAN_POINT ( 'NONE',  ( 6.633814543801952113E-14, 3.933120030030718265E-32, 19.00000000000000000 ) ) ;
#238 = MANIFOLD_SOLID_BREP ( 'Corps-Déplacer/Copier1[2]', #218 ) ;
#239 = DIRECTION ( 'NONE',  ( -3.491481338843133355E-15, 1.224646799147353207E-16, -1.000000000000000000 ) ) ;
#240 = DIRECTION ( 'NONE',  ( -3.491481338843133355E-15, 1.224646799147353207E-16, -1.000000000000000000 ) ) ;
#241 = FACE_OUTER_BOUND ( 'NONE', #275, .T. ) ;
#242 = CC_DESIGN_PERSON_AND_ORGANIZATION_ASSIGNMENT ( #17, #114, ( #143 ) ) ;
#243 = VERTEX_POINT ( 'NONE', #78 ) ;
#244 = EDGE_LOOP ( 'NONE', ( #41 ) ) ;
#245 = CIRCLE ( 'NONE', #99, 5.245000000000000107 ) ;
#246 = APPROVAL_STATUS ( 'not_yet_approved' ) ;
#247 = FACE_OUTER_BOUND ( 'NONE', #119, .T. ) ;
#248 = APPLICATION_CONTEXT ( 'configuration controlled 3d designs of mechanical parts and assemblies' ) ;
#249 = DIRECTION ( 'NONE',  ( 0.0000000000000000000, 1.000000000000000000, 0.0000000000000000000 ) ) ;
#250 = AXIS2_PLACEMENT_3D ( 'NONE', #33, #159, #265 ) ;
#251 = CALENDAR_DATE ( 2021, 2, 12 ) ;
#252 = EDGE_CURVE ( 'NONE', #127, #127, #87, .T. ) ;
#253 = PERSON_AND_ORGANIZATION ( #63, #112 ) ;
#254 = LOCAL_TIME ( 9, 11, 3.000000000000000000, #7 ) ;
#255 = ORIENTED_EDGE ( 'NONE', *, *, #94, .F. ) ;
#256 =( GEOMETRIC_REPRESENTATION_CONTEXT ( 3 ) GLOBAL_UNCERTAINTY_ASSIGNED_CONTEXT ( ( #64 ) ) GLOBAL_UNIT_ASSIGNED_CONTEXT ( ( #10, #271, #208 ) ) REPRESENTATION_CONTEXT ( 'NONE', 'WORKASPACE' ) );
#257 = EDGE_LOOP ( 'NONE', ( #179 ) ) ;
#258 = ADVANCED_FACE ( 'NONE', ( #28, #120 ), #92, .T. ) ;
#259 = APPLICATION_CONTEXT ( 'configuration controlled 3d designs of mechanical parts and assemblies' ) ;
#260 = FACE_OUTER_BOUND ( 'NONE', #109, .T. ) ;
#261 = DIRECTION ( 'NONE',  ( 4.275831445896958607E-31, 1.000000000000000000, 1.224646799147353207E-16 ) ) ;
#262 = LOCAL_TIME ( 9, 11, 3.000000000000000000, #233 ) ;
#263 = DIRECTION ( 'NONE',  ( -3.491481338843133355E-15, 1.224646799147353207E-16, -1.000000000000000000 ) ) ;
#264 = DIRECTION ( 'NONE',  ( -3.491481338843133355E-15, 1.224646799147353207E-16, -1.000000000000000000 ) ) ;
#265 = DIRECTION ( 'NONE',  ( 0.0000000000000000000, 1.000000000000000000, 0.0000000000000000000 ) ) ;
#266 = ORIENTED_EDGE ( 'NONE', *, *, #230, .T. ) ;
#267 = PERSON_AND_ORGANIZATION_ROLE ( 'design_owner' ) ;
#268 = AXIS2_PLACEMENT_3D ( 'NONE', #209, #31, #150 ) ;
#269 = CALENDAR_DATE ( 2021, 2, 12 ) ;
#270 = DIRECTION ( 'NONE',  ( -3.491481338843133355E-15, 1.224646799147353207E-16, -1.000000000000000000 ) ) ;
#271 =( NAMED_UNIT ( * ) PLANE_ANGLE_UNIT ( ) SI_UNIT ( $, .RADIAN. ) );
#272 = AXIS2_PLACEMENT_3D ( 'NONE', #205, #128, #105 ) ;
#273 = DIRECTION ( 'NONE',  ( 4.275831445896959482E-31, 1.000000000000000000, 1.224646799147353454E-16 ) ) ;
#274 = COORDINATED_UNIVERSAL_TIME_OFFSET ( 1, 0, .AHEAD. ) ;
#275 = EDGE_LOOP ( 'NONE', ( #59 ) ) ;
#276 = EDGE_LOOP ( 'NONE', ( #65 ) ) ;
#277 = AXIS2_PLACEMENT_3D ( 'NONE', #237, #140, #121 ) ;
#278 = CLOSED_SHELL ( 'NONE', ( #113, #73, #281, #37, #156, #258, #83 ) ) ;
#279 = DIRECTION ( 'NONE',  ( -3.491481338843133355E-15, 1.224646799147353207E-16, -1.000000000000000000 ) ) ;
#280 = LOCAL_TIME ( 9, 11, 3.000000000000000000, #213 ) ;
#281 = ADVANCED_FACE ( 'NONE', ( #75, #34 ), #102, .T. ) ;
#282 = EDGE_LOOP ( 'NONE', ( #221 ) ) ;
#283 = DIRECTION ( 'NONE',  ( -3.491481338843133355E-15, 1.224646799147353207E-16, -1.000000000000000000 ) ) ;
ENDSEC;
END-ISO-10303-21;
