ISO-10303-21;
HEADER;
FILE_DESCRIPTION (( 'STEP AP203' ),
    '1' );
FILE_NAME ('963732.step',
    '2021-12-02T08:11:03',
    ( '' ),
    ( '' ),
    'SwSTEP 2.0',
    'SolidWorks 2019',
    '' );
FILE_SCHEMA (( 'CONFIG_CONTROL_DESIGN' ));
ENDSEC;

DATA;
#1 = CALENDAR_DATE ( 2021, 2, 12 ) ;
#2 = AXIS2_PLACEMENT_3D ( 'NONE', #183, #72, #54 ) ;
#3 = DATE_AND_TIME ( #264, #148 ) ;
#4 = ADVANCED_FACE ( 'NONE', ( #28, #187 ), #127, .T. ) ;
#5 = CIRCLE ( 'NONE', #25, 5.000000000000007994 ) ;
#6 = DIRECTION ( 'NONE',  ( -3.491481338843133355E-15, 1.224646799147353207E-16, -1.000000000000000000 ) ) ;
#7 = PRODUCT_DEFINITION_FORMATION_WITH_SPECIFIED_SOURCE ( 'ANY', '', #68, .NOT_KNOWN. ) ;
#8 = EDGE_LOOP ( 'NONE', ( #138 ) ) ;
#9 = CC_DESIGN_PERSON_AND_ORGANIZATION_ASSIGNMENT ( #96, #53, ( #50 ) ) ;
#10 = EDGE_LOOP ( 'NONE', ( #118 ) ) ;
#11 = PERSON_AND_ORGANIZATION ( #198, #128 ) ;
#12 = DIRECTION ( 'NONE',  ( 3.491481338843133355E-15, -1.224646799147353207E-16, 1.000000000000000000 ) ) ;
#13 = CC_DESIGN_APPROVAL ( #247, ( #50 ) ) ;
#14 = AXIS2_PLACEMENT_3D ( 'NONE', #256, #161, #139 ) ;
#15 = DIRECTION ( 'NONE',  ( 4.410526590199778668E-31, 1.000000000000000000, 1.241452869258211720E-16 ) ) ;
#16 = CYLINDRICAL_SURFACE ( 'NONE', #76, 4.750000000000000000 ) ;
#17 = DIRECTION ( 'NONE',  ( -3.491481338843133355E-15, 1.224646799147353207E-16, -1.000000000000000000 ) ) ;
#18 = FACE_OUTER_BOUND ( 'NONE', #186, .T. ) ;
#19 = CARTESIAN_POINT ( 'NONE',  ( 1.396592535537251567E-15, -4.898587196589406296E-17, 0.3999999999999994671 ) ) ;
#20 = APPROVAL_PERSON_ORGANIZATION ( #27, #247, #141 ) ;
#21 = ORIENTED_EDGE ( 'NONE', *, *, #150, .T. ) ;
#22 = VERTEX_POINT ( 'NONE', #134 ) ;
#23 =( NAMED_UNIT ( * ) SI_UNIT ( $, .STERADIAN. ) SOLID_ANGLE_UNIT ( ) );
#24 = AXIS2_PLACEMENT_3D ( 'NONE', #276, #146, #242 ) ;
#25 = AXIS2_PLACEMENT_3D ( 'NONE', #232, #6, #251 ) ;
#26 = SHAPE_DEFINITION_REPRESENTATION ( #203, #154 ) ;
#27 = PERSON_AND_ORGANIZATION ( #198, #128 ) ;
#28 = FACE_BOUND ( 'NONE', #47, .T. ) ;
#29 = DIRECTION ( 'NONE',  ( -3.491481338843133355E-15, 1.224646799147353207E-16, -1.000000000000000000 ) ) ;
#30 = CARTESIAN_POINT ( 'NONE',  ( 3.071394887490858903E-13, -1.077300306903406976E-14, 87.96824583655184426 ) ) ;
#31 = CARTESIAN_POINT ( 'NONE',  ( 3.037588764793525640E-13, -1.040834085586084257E-14, 87.00000000000000000 ) ) ;
#32 = ORIENTED_EDGE ( 'NONE', *, *, #204, .T. ) ;
#33 = DIRECTION ( 'NONE',  ( 0.0000000000000000000, 1.000000000000000000, 0.0000000000000000000 ) ) ;
#34 = CARTESIAN_POINT ( 'NONE',  ( 4.643670180661366731E-13, 3.999999999999991562, 133.0000000000000000 ) ) ;
#35 = APPROVAL ( #114, 'UNSPECIFIED' ) ;
#36 = CARTESIAN_POINT ( 'NONE',  ( 4.608755367272936534E-13, 4.999999999999991118, 132.0000000000000000 ) ) ;
#37 = CONICAL_SURFACE ( 'NONE', #73, 4.000000000000007994, 0.7853981633974479459 ) ;
#38 = AXIS2_PLACEMENT_3D ( 'NONE', #213, #12, #49 ) ;
#39 = FACE_OUTER_BOUND ( 'NONE', #237, .T. ) ;
#40 = ADVANCED_FACE ( 'NONE', ( #215 ), #271, .F. ) ;
#41 = DIRECTION ( 'NONE',  ( 0.0000000000000000000, 1.000000000000000000, 0.0000000000000000000 ) ) ;
#42 = APPLICATION_PROTOCOL_DEFINITION ( 'international standard', 'config_control_design', 1994, #189 ) ;
#43 = COORDINATED_UNIVERSAL_TIME_OFFSET ( 1, 0, .AHEAD. ) ;
#44 = AXIS2_PLACEMENT_3D ( 'NONE', #105, #17, #63 ) ;
#45 = ADVANCED_FACE ( 'NONE', ( #77, #268 ), #246, .F. ) ;
#46 = PERSON_AND_ORGANIZATION_ROLE ( 'design_owner' ) ;
#47 = EDGE_LOOP ( 'NONE', ( #158 ) ) ;
#48 = EDGE_LOOP ( 'NONE', ( #225 ) ) ;
#49 = DIRECTION ( 'NONE',  ( -4.275831445896958607E-31, -1.000000000000000000, -1.224646799147353207E-16 ) ) ;
#50 = SECURITY_CLASSIFICATION ( '', '', #212 ) ;
#51 = AXIS2_PLACEMENT_3D ( 'NONE', #30, #230, #279 ) ;
#52 = MANIFOLD_SOLID_BREP ( 'Corps-Déplacer/Copier1[1]', #254 ) ;
#53 = PERSON_AND_ORGANIZATION_ROLE ( 'classification_officer' ) ;
#54 = DIRECTION ( 'NONE',  ( -4.410526590199778668E-31, -1.000000000000000000, -1.241452869258211720E-16 ) ) ;
#55 = EDGE_LOOP ( 'NONE', ( #263 ) ) ;
#56 = CARTESIAN_POINT ( 'NONE',  ( 6.930138274357152586E-14, -2.430765291775014655E-15, 19.84870489570877439 ) ) ;
#57 = DIRECTION ( 'NONE',  ( 0.0000000000000000000, 1.000000000000000000, 0.0000000000000000000 ) ) ;
#58 = CYLINDRICAL_SURFACE ( 'NONE', #115, 5.239999999999998437 ) ;
#59 = CARTESIAN_POINT ( 'NONE',  ( 4.794374511994647135E-31, -1.681640206610220819E-32, 1.373163436005421648E-16 ) ) ;
#60 = AXIS2_PLACEMENT_3D ( 'NONE', #56, #169, #257 ) ;
#61 = APPROVAL_PERSON_ORGANIZATION ( #262, #236, #152 ) ;
#62 = APPROVAL_PERSON_ORGANIZATION ( #111, #35, #224 ) ;
#63 = DIRECTION ( 'NONE',  ( 4.275831445896958607E-31, 1.000000000000000000, 1.224646799147353454E-16 ) ) ;
#64 = DATE_AND_TIME ( #178, #122 ) ;
#65 = APPROVAL_STATUS ( 'not_yet_approved' ) ;
#66 = VERTEX_POINT ( 'NONE', #69 ) ;
#67 = AXIS2_PLACEMENT_3D ( 'NONE', #238, #278, #41 ) ;
#68 = PRODUCT ( '963732', '963732', '', ( #248 ) ) ;
#69 = CARTESIAN_POINT ( 'NONE',  ( 6.930138274357152586E-14, 4.749999999999989342, 19.84870489570877439 ) ) ;
#70 = DATE_AND_TIME ( #136, #207 ) ;
#71 = ORIENTED_EDGE ( 'NONE', *, *, #184, .T. ) ;
#72 = DIRECTION ( 'NONE',  ( 3.491481338843133355E-15, -1.224646799147353207E-16, 1.000000000000000000 ) ) ;
#73 = AXIS2_PLACEMENT_3D ( 'NONE', #147, #275, #78 ) ;
#74 = EDGE_LOOP ( 'NONE', ( #97 ) ) ;
#75 = CC_DESIGN_SECURITY_CLASSIFICATION ( #50, ( #7 ) ) ;
#76 = AXIS2_PLACEMENT_3D ( 'NONE', #125, #260, #219 ) ;
#77 = FACE_OUTER_BOUND ( 'NONE', #8, .T. ) ;
#78 = DIRECTION ( 'NONE',  ( 0.0000000000000000000, 1.000000000000000000, 0.0000000000000000000 ) ) ;
#79 = ADVANCED_FACE ( 'NONE', ( #121 ), #95, .F. ) ;
#80 = DIRECTION ( 'NONE',  ( -3.491481338843133355E-15, 1.224646799147353207E-16, -1.000000000000000000 ) ) ;
#81 = DIRECTION ( 'NONE',  ( 0.0000000000000000000, 1.000000000000000000, 0.0000000000000000000 ) ) ;
#82 = CARTESIAN_POINT ( 'NONE',  ( 6.930138274357152586E-14, -2.430765291775014655E-15, 19.84870489570877439 ) ) ;
#83 = DIRECTION ( 'NONE',  ( -3.491481338843133355E-15, 1.224646799147353207E-16, -1.000000000000000000 ) ) ;
#84 = COORDINATED_UNIVERSAL_TIME_OFFSET ( 1, 0, .AHEAD. ) ;
#85 = CARTESIAN_POINT ( 'NONE',  ( 3.028377322213058170E-30, 4.840000000000002522, 8.673617379884035472E-16 ) ) ;
#86 = PRODUCT_DEFINITION ( 'UNKNOWN', '', #7, #231 ) ;
#87 = PERSON_AND_ORGANIZATION ( #198, #128 ) ;
#88 = VERTEX_POINT ( 'NONE', #266 ) ;
#89 = AXIS2_PLACEMENT_3D ( 'NONE', #176, #90, #181 ) ;
#90 = DIRECTION ( 'NONE',  ( 0.0000000000000000000, 0.0000000000000000000, 1.000000000000000000 ) ) ;
#91 = EDGE_CURVE ( 'NONE', #145, #145, #5, .T. ) ;
#92 = ORIENTED_EDGE ( 'NONE', *, *, #132, .T. ) ;
#93 = PERSON_AND_ORGANIZATION_ROLE ( 'design_supplier' ) ;
#94 = AXIS2_PLACEMENT_3D ( 'NONE', #31, #234, #252 ) ;
#95 = PLANE ( 'NONE',  #38 ) ;
#96 = PERSON_AND_ORGANIZATION ( #198, #128 ) ;
#97 = ORIENTED_EDGE ( 'NONE', *, *, #129, .F. ) ;
#98 = CALENDAR_DATE ( 2021, 2, 12 ) ;
#99 = EDGE_LOOP ( 'NONE', ( #214 ) ) ;
#100 = APPROVAL_STATUS ( 'not_yet_approved' ) ;
#101 = AXIS2_PLACEMENT_3D ( 'NONE', #261, #240, #57 ) ;
#102 = CARTESIAN_POINT ( 'NONE',  ( 4.643670180661366731E-13, -1.628780242865979995E-14, 133.0000000000000000 ) ) ;
#103 = AXIS2_PLACEMENT_3D ( 'NONE', #102, #29, #166 ) ;
#104 = DIRECTION ( 'NONE',  ( 4.275831445896957731E-31, 1.000000000000000000, 1.224646799147353207E-16 ) ) ;
#105 = CARTESIAN_POINT ( 'NONE',  ( 0.0000000000000000000, 0.0000000000000000000, 0.0000000000000000000 ) ) ;
#106 = DIRECTION ( 'NONE',  ( -3.491481338843133355E-15, 1.224646799147353207E-16, -1.000000000000000000 ) ) ;
#107 = FACE_OUTER_BOUND ( 'NONE', #253, .T. ) ;
#108 = DIRECTION ( 'NONE',  ( -3.491481338843133355E-15, 1.224646799147353207E-16, -1.000000000000000000 ) ) ;
#109 = COORDINATED_UNIVERSAL_TIME_OFFSET ( 1, 0, .AHEAD. ) ;
#110 = DATE_AND_TIME ( #1, #228 ) ;
#111 = PERSON_AND_ORGANIZATION ( #198, #128 ) ;
#112 =( LENGTH_UNIT ( ) NAMED_UNIT ( * ) SI_UNIT ( .MILLI., .METRE. ) );
#113 = CIRCLE ( 'NONE', #220, 4.840000000000002522 ) ;
#114 = APPROVAL_STATUS ( 'not_yet_approved' ) ;
#115 = AXIS2_PLACEMENT_3D ( 'NONE', #144, #83, #258 ) ;
#116 = ORIENTED_EDGE ( 'NONE', *, *, #184, .F. ) ;
#117 = CIRCLE ( 'NONE', #51, 5.000000000000000888 ) ;
#118 = ORIENTED_EDGE ( 'NONE', *, *, #91, .F. ) ;
#119 = COORDINATED_UNIVERSAL_TIME_OFFSET ( 1, 0, .AHEAD. ) ;
#120 = COORDINATED_UNIVERSAL_TIME_OFFSET ( 1, 0, .AHEAD. ) ;
#121 = FACE_OUTER_BOUND ( 'NONE', #185, .T. ) ;
#122 = LOCAL_TIME ( 9, 11, 3.000000000000000000, #84 ) ;
#123 = ORIENTED_EDGE ( 'NONE', *, *, #222, .F. ) ;
#124 = DIRECTION ( 'NONE',  ( 3.491481338843133355E-15, -1.224646799147353207E-16, 1.000000000000000000 ) ) ;
#125 = CARTESIAN_POINT ( 'NONE',  ( 0.0000000000000000000, 0.0000000000000000000, 0.0000000000000000000 ) ) ;
#126 = CARTESIAN_POINT ( 'NONE',  ( 3.071394887490858903E-13, 4.999999999999990230, 87.96824583655184426 ) ) ;
#127 = CONICAL_SURFACE ( 'NONE', #2, 5.239999999999997549, 0.7853981633974430610 ) ;
#128 = ORGANIZATION ( 'UNSPECIFIED', 'UNSPECIFIED', '' ) ;
#129 = EDGE_CURVE ( 'NONE', #239, #239, #211, .T. ) ;
#130 = CARTESIAN_POINT ( 'NONE',  ( 3.037588764793525640E-13, -1.065442715258197209E-14, 87.00000000000000000 ) ) ;
#131 = PLANE ( 'NONE',  #24 ) ;
#132 = EDGE_CURVE ( 'NONE', #221, #221, #117, .T. ) ;
#133 = PERSON_AND_ORGANIZATION ( #198, #128 ) ;
#134 = CARTESIAN_POINT ( 'NONE',  ( 1.396592535537253934E-15, 5.239999999999997549, 0.4000000000000001332 ) ) ;
#135 = CC_DESIGN_DATE_AND_TIME_ASSIGNMENT ( #64, #200, ( #86 ) ) ;
#136 = CALENDAR_DATE ( 2021, 2, 12 ) ;
#137 = APPLICATION_CONTEXT ( 'configuration controlled 3d designs of mechanical parts and assemblies' ) ;
#138 = ORIENTED_EDGE ( 'NONE', *, *, #204, .F. ) ;
#139 = DIRECTION ( 'NONE',  ( 4.275831445896958607E-31, 1.000000000000000000, 1.224646799147353207E-16 ) ) ;
#140 = UNCERTAINTY_MEASURE_WITH_UNIT (LENGTH_MEASURE( 1.000000000000000082E-05 ), #112, 'distance_accuracy_value', 'NONE');
#141 = APPROVAL_ROLE ( '' ) ;
#142 = MANIFOLD_SOLID_BREP ( 'Corps-Déplacer/Copier1[2]', #179 ) ;
#143 = EDGE_LOOP ( 'NONE', ( #71 ) ) ;
#144 = CARTESIAN_POINT ( 'NONE',  ( 0.0000000000000000000, 0.0000000000000000000, 0.0000000000000000000 ) ) ;
#145 = VERTEX_POINT ( 'NONE', #36 ) ;
#146 = DIRECTION ( 'NONE',  ( 3.491481338843133355E-15, -1.224646799147353207E-16, 1.000000000000000000 ) ) ;
#147 = CARTESIAN_POINT ( 'NONE',  ( 4.643670180661366731E-13, -1.628780242865979995E-14, 133.0000000000000000 ) ) ;
#148 = LOCAL_TIME ( 9, 11, 3.000000000000000000, #43 ) ;
#149 = FACE_OUTER_BOUND ( 'NONE', #10, .T. ) ;
#150 = EDGE_CURVE ( 'NONE', #172, #172, #208, .T. ) ;
#151 = APPROVAL_DATE_TIME ( #110, #35 ) ;
#152 = APPROVAL_ROLE ( '' ) ;
#153 = APPROVAL_DATE_TIME ( #3, #236 ) ;
#154 = ADVANCED_BREP_SHAPE_REPRESENTATION ( '963732', ( #52, #142, #89 ), #265 ) ;
#155 = PRODUCT_RELATED_PRODUCT_CATEGORY ( 'detail', '', ( #68 ) ) ;
#156 = LOCAL_TIME ( 9, 11, 3.000000000000000000, #119 ) ;
#157 = DATE_AND_TIME ( #98, #156 ) ;
#158 = ORIENTED_EDGE ( 'NONE', *, *, #194, .F. ) ;
#159 = CC_DESIGN_PERSON_AND_ORGANIZATION_ASSIGNMENT ( #205, #46, ( #68 ) ) ;
#160 = ORIENTED_EDGE ( 'NONE', *, *, #280, .T. ) ;
#161 = DIRECTION ( 'NONE',  ( -3.491481338843133355E-15, 1.224646799147353207E-16, -1.000000000000000000 ) ) ;
#162 = CC_DESIGN_PERSON_AND_ORGANIZATION_ASSIGNMENT ( #11, #93, ( #7 ) ) ;
#163 = AXIS2_PLACEMENT_3D ( 'NONE', #130, #108, #81 ) ;
#164 = ORIENTED_EDGE ( 'NONE', *, *, #280, .F. ) ;
#165 = ADVANCED_FACE ( 'NONE', ( #243, #18 ), #16, .T. ) ;
#166 = DIRECTION ( 'NONE',  ( 0.0000000000000000000, 1.000000000000000000, 0.0000000000000000000 ) ) ;
#167 = CC_DESIGN_PERSON_AND_ORGANIZATION_ASSIGNMENT ( #133, #209, ( #7 ) ) ;
#168 = FACE_OUTER_BOUND ( 'NONE', #177, .T. ) ;
#169 = DIRECTION ( 'NONE',  ( -3.491481338843133355E-15, 1.224646799147353207E-16, -1.000000000000000000 ) ) ;
#170 = CIRCLE ( 'NONE', #190, 5.239999999999997549 ) ;
#171 = PLANE ( 'NONE',  #272 ) ;
#172 = VERTEX_POINT ( 'NONE', #226 ) ;
#173 = FACE_BOUND ( 'NONE', #269, .T. ) ;
#174 = ADVANCED_FACE ( 'NONE', ( #39, #192 ), #199, .T. ) ;
#175 = VERTEX_POINT ( 'NONE', #201 ) ;
#176 = CARTESIAN_POINT ( 'NONE',  ( 0.0000000000000000000, 0.0000000000000000000, 0.0000000000000000000 ) ) ;
#177 = EDGE_LOOP ( 'NONE', ( #164 ) ) ;
#178 = CALENDAR_DATE ( 2021, 2, 12 ) ;
#179 = CLOSED_SHELL ( 'NONE', ( #245, #4, #274, #255 ) ) ;
#180 = VERTEX_POINT ( 'NONE', #85 ) ;
#181 = DIRECTION ( 'NONE',  ( 1.000000000000000000, 0.0000000000000000000, 0.0000000000000000000 ) ) ;
#182 = CC_DESIGN_DATE_AND_TIME_ASSIGNMENT ( #70, #229, ( #50 ) ) ;
#183 = CARTESIAN_POINT ( 'NONE',  ( 1.396592535537251567E-15, -4.898587196589406296E-17, 0.3999999999999994671 ) ) ;
#184 = EDGE_CURVE ( 'NONE', #22, #22, #170, .T. ) ;
#185 = EDGE_LOOP ( 'NONE', ( #160 ) ) ;
#186 = EDGE_LOOP ( 'NONE', ( #32 ) ) ;
#187 = FACE_OUTER_BOUND ( 'NONE', #143, .T. ) ;
#188 = APPROVAL_DATE_TIME ( #157, #247 ) ;
#189 = APPLICATION_CONTEXT ( 'configuration controlled 3d designs of mechanical parts and assemblies' ) ;
#190 = AXIS2_PLACEMENT_3D ( 'NONE', #19, #106, #15 ) ;
#191 = EDGE_LOOP ( 'NONE', ( #123 ) ) ;
#192 = FACE_OUTER_BOUND ( 'NONE', #55, .T. ) ;
#193 = FACE_OUTER_BOUND ( 'NONE', #216, .T. ) ;
#194 = EDGE_CURVE ( 'NONE', #180, #180, #113, .T. ) ;
#195 = FACE_OUTER_BOUND ( 'NONE', #235, .T. ) ;
#196 = CONICAL_SURFACE ( 'NONE', #60, 4.749999999999992006, 0.5235987755982938197 ) ;
#197 = CARTESIAN_POINT ( 'NONE',  ( 9.588749023989294270E-31, -3.363280413220441638E-32, 2.746326872010843297E-16 ) ) ;
#198 = PERSON ( 'UNSPECIFIED', 'UNSPECIFIED', 'UNSPECIFIED', ('UNSPECIFIED'), ('UNSPECIFIED'), ('UNSPECIFIED') ) ;
#199 = CYLINDRICAL_SURFACE ( 'NONE', #44, 5.000000000000004441 ) ;
#200 = DATE_TIME_ROLE ( 'creation_date' ) ;
#201 = CARTESIAN_POINT ( 'NONE',  ( 6.633814543801952113E-14, 5.239999999999997549, 19.00000000000000000 ) ) ;
#202 = ORIENTED_EDGE ( 'NONE', *, *, #132, .F. ) ;
#203 = PRODUCT_DEFINITION_SHAPE ( 'NONE', 'NONE',  #86 ) ;
#204 = EDGE_CURVE ( 'NONE', #88, #88, #206, .T. ) ;
#205 = PERSON_AND_ORGANIZATION ( #198, #128 ) ;
#206 = CIRCLE ( 'NONE', #163, 4.750000000000007994 ) ;
#207 = LOCAL_TIME ( 9, 11, 3.000000000000000000, #120 ) ;
#208 = CIRCLE ( 'NONE', #67, 5.240000000000000213 ) ;
#209 = PERSON_AND_ORGANIZATION_ROLE ( 'creator' ) ;
#210 = EDGE_LOOP ( 'NONE', ( #92 ) ) ;
#211 = CIRCLE ( 'NONE', #103, 4.000000000000007994 ) ;
#212 = SECURITY_CLASSIFICATION_LEVEL ( 'unclassified' ) ;
#213 = CARTESIAN_POINT ( 'NONE',  ( 6.633814543801952113E-14, 3.929370630574062772E-32, 19.00000000000000000 ) ) ;
#214 = ORIENTED_EDGE ( 'NONE', *, *, #194, .T. ) ;
#215 = FACE_OUTER_BOUND ( 'NONE', #74, .T. ) ;
#216 = EDGE_LOOP ( 'NONE', ( #116 ) ) ;
#217 = FACE_OUTER_BOUND ( 'NONE', #99, .T. ) ;
#218 = ADVANCED_FACE ( 'NONE', ( #149, #173 ), #37, .T. ) ;
#219 = DIRECTION ( 'NONE',  ( 4.275831445896959482E-31, 1.000000000000000000, 1.224646799147353207E-16 ) ) ;
#220 = AXIS2_PLACEMENT_3D ( 'NONE', #197, #223, #104 ) ;
#221 = VERTEX_POINT ( 'NONE', #126 ) ;
#222 = EDGE_CURVE ( 'NONE', #66, #66, #233, .T. ) ;
#223 = DIRECTION ( 'NONE',  ( -3.491481338843133355E-15, 1.224646799147353207E-16, -1.000000000000000000 ) ) ;
#224 = APPROVAL_ROLE ( '' ) ;
#225 = ORIENTED_EDGE ( 'NONE', *, *, #222, .T. ) ;
#226 = CARTESIAN_POINT ( 'NONE',  ( 6.633814543801952113E-14, 5.239999999999997549, 19.00000000000000000 ) ) ;
#227 = CC_DESIGN_PERSON_AND_ORGANIZATION_ASSIGNMENT ( #87, #282, ( #86 ) ) ;
#228 = LOCAL_TIME ( 9, 11, 3.000000000000000000, #109 ) ;
#229 = DATE_TIME_ROLE ( 'classification_date' ) ;
#230 = DIRECTION ( 'NONE',  ( -3.491481338843133355E-15, 1.224646799147353207E-16, -1.000000000000000000 ) ) ;
#231 = DESIGN_CONTEXT ( 'detailed design', #137, 'design' ) ;
#232 = CARTESIAN_POINT ( 'NONE',  ( 4.608755367272936534E-13, -1.616533774874506480E-14, 132.0000000000000000 ) ) ;
#233 = CIRCLE ( 'NONE', #241, 4.749999999999992006 ) ;
#234 = DIRECTION ( 'NONE',  ( -3.491481338843133355E-15, 1.224646799147353207E-16, -1.000000000000000000 ) ) ;
#235 = EDGE_LOOP ( 'NONE', ( #21 ) ) ;
#236 = APPROVAL ( #65, 'UNSPECIFIED' ) ;
#237 = EDGE_LOOP ( 'NONE', ( #202 ) ) ;
#238 = CARTESIAN_POINT ( 'NONE',  ( 6.633814543801952113E-14, -2.326828918379970970E-15, 19.00000000000000000 ) ) ;
#239 = VERTEX_POINT ( 'NONE', #34 ) ;
#240 = DIRECTION ( 'NONE',  ( -3.491481338843133355E-15, 1.224646799147353207E-16, -1.000000000000000000 ) ) ;
#241 = AXIS2_PLACEMENT_3D ( 'NONE', #82, #80, #33 ) ;
#242 = DIRECTION ( 'NONE',  ( -4.275831445896958607E-31, -1.000000000000000000, -1.224646799147353207E-16 ) ) ;
#243 = FACE_OUTER_BOUND ( 'NONE', #191, .T. ) ;
#244 =( NAMED_UNIT ( * ) PLANE_ANGLE_UNIT ( ) SI_UNIT ( $, .RADIAN. ) );
#245 = ADVANCED_FACE ( 'NONE', ( #217 ), #171, .F. ) ;
#246 = TOROIDAL_SURFACE ( 'NONE', #94, 6.750000000000007994, 2.000000000000001776 ) ;
#247 = APPROVAL ( #100, 'UNSPECIFIED' ) ;
#248 = MECHANICAL_CONTEXT ( 'NONE', #189, 'mechanical' ) ;
#249 = APPLICATION_PROTOCOL_DEFINITION ( 'international standard', 'config_control_design', 1994, #137 ) ;
#250 = CC_DESIGN_APPROVAL ( #35, ( #86 ) ) ;
#251 = DIRECTION ( 'NONE',  ( 0.0000000000000000000, 1.000000000000000000, 0.0000000000000000000 ) ) ;
#252 = DIRECTION ( 'NONE',  ( 4.275831445896958607E-31, 1.000000000000000000, 1.224646799147353207E-16 ) ) ;
#253 = EDGE_LOOP ( 'NONE', ( #283 ) ) ;
#254 = CLOSED_SHELL ( 'NONE', ( #79, #267, #165, #45, #174, #218, #40 ) ) ;
#255 = ADVANCED_FACE ( 'NONE', ( #107 ), #131, .T. ) ;
#256 = CARTESIAN_POINT ( 'NONE',  ( 4.643670180661366731E-13, 2.999519565323696057E-32, 133.0000000000000000 ) ) ;
#257 = DIRECTION ( 'NONE',  ( 0.0000000000000000000, 1.000000000000000000, 0.0000000000000000000 ) ) ;
#258 = DIRECTION ( 'NONE',  ( 4.275831445896957731E-31, 1.000000000000000000, 1.224646799147353207E-16 ) ) ;
#259 = DIRECTION ( 'NONE',  ( -4.275831445896958607E-31, -1.000000000000000000, -1.224646799147353207E-16 ) ) ;
#260 = DIRECTION ( 'NONE',  ( -3.491481338843133355E-15, 1.224646799147353207E-16, -1.000000000000000000 ) ) ;
#261 = CARTESIAN_POINT ( 'NONE',  ( 6.633814543801952113E-14, -2.326828918379970970E-15, 19.00000000000000000 ) ) ;
#262 = PERSON_AND_ORGANIZATION ( #198, #128 ) ;
#263 = ORIENTED_EDGE ( 'NONE', *, *, #91, .T. ) ;
#264 = CALENDAR_DATE ( 2021, 2, 12 ) ;
#265 =( GEOMETRIC_REPRESENTATION_CONTEXT ( 3 ) GLOBAL_UNCERTAINTY_ASSIGNED_CONTEXT ( ( #140 ) ) GLOBAL_UNIT_ASSIGNED_CONTEXT ( ( #112, #244, #23 ) ) REPRESENTATION_CONTEXT ( 'NONE', 'WORKASPACE' ) );
#266 = CARTESIAN_POINT ( 'NONE',  ( 3.037588764793525640E-13, 4.749999999999997335, 87.00000000000000000 ) ) ;
#267 = ADVANCED_FACE ( 'NONE', ( #168, #281 ), #196, .T. ) ;
#268 = FACE_OUTER_BOUND ( 'NONE', #210, .T. ) ;
#269 = EDGE_LOOP ( 'NONE', ( #270 ) ) ;
#270 = ORIENTED_EDGE ( 'NONE', *, *, #129, .T. ) ;
#271 = PLANE ( 'NONE',  #14 ) ;
#272 = AXIS2_PLACEMENT_3D ( 'NONE', #59, #124, #259 ) ;
#273 = CIRCLE ( 'NONE', #101, 5.240000000000000213 ) ;
#274 = ADVANCED_FACE ( 'NONE', ( #193, #195 ), #58, .T. ) ;
#275 = DIRECTION ( 'NONE',  ( -3.491481338843133355E-15, 1.224646799147353207E-16, -1.000000000000000000 ) ) ;
#276 = CARTESIAN_POINT ( 'NONE',  ( 6.633814543801952113E-14, 3.929370630574062772E-32, 19.00000000000000000 ) ) ;
#277 = CC_DESIGN_APPROVAL ( #236, ( #7 ) ) ;
#278 = DIRECTION ( 'NONE',  ( -3.491481338843133355E-15, 1.224646799147353207E-16, -1.000000000000000000 ) ) ;
#279 = DIRECTION ( 'NONE',  ( 0.0000000000000000000, 1.000000000000000000, 0.0000000000000000000 ) ) ;
#280 = EDGE_CURVE ( 'NONE', #175, #175, #273, .T. ) ;
#281 = FACE_BOUND ( 'NONE', #48, .T. ) ;
#282 = PERSON_AND_ORGANIZATION_ROLE ( 'creator' ) ;
#283 = ORIENTED_EDGE ( 'NONE', *, *, #150, .F. ) ;
ENDSEC;
END-ISO-10303-21;
