ISO-10303-21;
HEADER;
FILE_DESCRIPTION (( 'STEP AP203' ),
    '1' );
FILE_NAME ('963716.step',
    '2021-12-01T07:27:27',
    ( '' ),
    ( '' ),
    'SwSTEP 2.0',
    'SolidWorks 2019',
    '' );
FILE_SCHEMA (( 'CONFIG_CONTROL_DESIGN' ));
ENDSEC;

DATA;
#1 = PERSON_AND_ORGANIZATION ( #279, #235 ) ;
#2 = DIRECTION ( 'NONE',  ( 3.491481338843133355E-15, -1.224646799147353207E-16, 1.000000000000000000 ) ) ;
#3 = CC_DESIGN_PERSON_AND_ORGANIZATION_ASSIGNMENT ( #197, #45, ( #180 ) ) ;
#4 = EDGE_LOOP ( 'NONE', ( #167 ) ) ;
#5 = ORIENTED_EDGE ( 'NONE', *, *, #8, .T. ) ;
#6 = PLANE ( 'NONE',  #148 ) ;
#7 = ADVANCED_BREP_SHAPE_REPRESENTATION ( '963716', ( #149, #154, #74 ), #258 ) ;
#8 = EDGE_CURVE ( 'NONE', #105, #105, #106, .T. ) ;
#9 = PRODUCT_DEFINITION ( 'UNKNOWN', '', #113, #206 ) ;
#10 = ORIENTED_EDGE ( 'NONE', *, *, #42, .T. ) ;
#11 = CARTESIAN_POINT ( 'NONE',  ( 1.316288464743861212E-13, 1.499999999999998668, 37.69999999999999574 ) ) ;
#12 = CIRCLE ( 'NONE', #98, 1.499999999999996891 ) ;
#13 = CC_DESIGN_APPROVAL ( #60, ( #180 ) ) ;
#14 = CARTESIAN_POINT ( 'NONE',  ( 1.326762908760390423E-13, 8.998558695971103225E-33, 38.00000000000000000 ) ) ;
#15 = APPLICATION_CONTEXT ( 'configuration controlled 3d designs of mechanical parts and assemblies' ) ;
#16 = PLANE ( 'NONE',  #243 ) ;
#17 = CLOSED_SHELL ( 'NONE', ( #109, #165, #160, #240, #140, #64, #55 ) ) ;
#18 =( NAMED_UNIT ( * ) SI_UNIT ( $, .STERADIAN. ) SOLID_ANGLE_UNIT ( ) );
#19 = CONICAL_SURFACE ( 'NONE', #88, 1.499999999999996891, 0.1745329251994260922 ) ;
#20 = EDGE_CURVE ( 'NONE', #153, #153, #87, .T. ) ;
#21 = APPROVAL_DATE_TIME ( #138, #249 ) ;
#22 = FACE_OUTER_BOUND ( 'NONE', #82, .T. ) ;
#23 = DATE_AND_TIME ( #46, #127 ) ;
#24 = UNCERTAINTY_MEASURE_WITH_UNIT (LENGTH_MEASURE( 1.000000000000000082E-05 ), #134, 'distance_accuracy_value', 'NONE');
#25 = PLANE ( 'NONE',  #49 ) ;
#26 = CALENDAR_DATE ( 2021, 1, 12 ) ;
#27 = APPROVAL_PERSON_ORGANIZATION ( #184, #211, #66 ) ;
#28 = DIRECTION ( 'NONE',  ( -3.491481338843133355E-15, 1.224646799147353207E-16, -1.000000000000000000 ) ) ;
#29 = CARTESIAN_POINT ( 'NONE',  ( -8.735406869032636448E-32, 3.063968276844699460E-33, -2.501919964987418229E-17 ) ) ;
#30 = AXIS2_PLACEMENT_3D ( 'NONE', #141, #115, #48 ) ;
#31 = FACE_OUTER_BOUND ( 'NONE', #84, .T. ) ;
#32 = ORIENTED_EDGE ( 'NONE', *, *, #20, .F. ) ;
#33 = APPLICATION_CONTEXT ( 'configuration controlled 3d designs of mechanical parts and assemblies' ) ;
#34 = AXIS2_PLACEMENT_3D ( 'NONE', #168, #143, #247 ) ;
#35 = CYLINDRICAL_SURFACE ( 'NONE', #34, 0.2449999999999995515 ) ;
#36 = DIRECTION ( 'NONE',  ( 0.0000000000000000000, 1.000000000000000000, 0.0000000000000000000 ) ) ;
#37 = CARTESIAN_POINT ( 'NONE',  ( 3.491481338843133355E-16, 0.2449999999999990241, 0.09999999999999999167 ) ) ;
#38 = VERTEX_POINT ( 'NONE', #131 ) ;
#39 = AXIS2_PLACEMENT_3D ( 'NONE', #178, #151, #107 ) ;
#40 = CIRCLE ( 'NONE', #50, 0.2449999999999994404 ) ;
#41 = CYLINDRICAL_SURFACE ( 'NONE', #79, 0.2449999999999992462 ) ;
#42 = EDGE_CURVE ( 'NONE', #155, #155, #158, .T. ) ;
#43 = CC_DESIGN_DATE_AND_TIME_ASSIGNMENT ( #23, #237, ( #180 ) ) ;
#44 = FACE_OUTER_BOUND ( 'NONE', #4, .T. ) ;
#45 = PERSON_AND_ORGANIZATION_ROLE ( 'classification_officer' ) ;
#46 = CALENDAR_DATE ( 2021, 1, 12 ) ;
#47 = EDGE_CURVE ( 'NONE', #170, #170, #269, .T. ) ;
#48 = DIRECTION ( 'NONE',  ( 0.0000000000000000000, 1.000000000000000000, 0.0000000000000000000 ) ) ;
#49 = AXIS2_PLACEMENT_3D ( 'NONE', #159, #117, #97 ) ;
#50 = AXIS2_PLACEMENT_3D ( 'NONE', #89, #251, #195 ) ;
#51 = COORDINATED_UNIVERSAL_TIME_OFFSET ( 1, 0, .AHEAD. ) ;
#52 = APPROVAL_PERSON_ORGANIZATION ( #256, #249, #179 ) ;
#53 = EDGE_LOOP ( 'NONE', ( #80 ) ) ;
#54 = DIRECTION ( 'NONE',  ( -3.930469274259680851E-31, -1.000000000000000000, -1.106328747434192658E-16 ) ) ;
#55 = ADVANCED_FACE ( 'NONE', ( #194 ), #252, .F. ) ;
#56 = ORIENTED_EDGE ( 'NONE', *, *, #199, .F. ) ;
#57 = FACE_OUTER_BOUND ( 'NONE', #58, .T. ) ;
#58 = EDGE_LOOP ( 'NONE', ( #10 ) ) ;
#59 = DIRECTION ( 'NONE',  ( -3.491481338843133355E-15, 1.224646799147353207E-16, -1.000000000000000000 ) ) ;
#60 = APPROVAL ( #183, 'UNSPECIFIED' ) ;
#61 = DIRECTION ( 'NONE',  ( 0.0000000000000000000, -1.000000000000000000, 0.0000000000000000000 ) ) ;
#62 = MECHANICAL_CONTEXT ( 'NONE', #15, 'mechanical' ) ;
#63 = PERSON_AND_ORGANIZATION ( #279, #235 ) ;
#64 = ADVANCED_FACE ( 'NONE', ( #22, #259 ), #121, .T. ) ;
#65 = VERTEX_POINT ( 'NONE', #108 ) ;
#66 = APPROVAL_ROLE ( '' ) ;
#67 = TOROIDAL_SURFACE ( 'NONE', #173, 2.244999999999999662, 2.000000000000000000 ) ;
#68 = SHAPE_DEFINITION_REPRESENTATION ( #238, #7 ) ;
#69 = FACE_OUTER_BOUND ( 'NONE', #226, .T. ) ;
#70 = CALENDAR_DATE ( 2021, 1, 12 ) ;
#71 = FACE_OUTER_BOUND ( 'NONE', #191, .T. ) ;
#72 = DATE_AND_TIME ( #261, #99 ) ;
#73 = APPROVAL_DATE_TIME ( #72, #211 ) ;
#74 = AXIS2_PLACEMENT_3D ( 'NONE', #276, #130, #86 ) ;
#75 = DIRECTION ( 'NONE',  ( -3.491481338843133355E-15, 1.224646799147353207E-16, -1.000000000000000000 ) ) ;
#76 = EDGE_LOOP ( 'NONE', ( #145 ) ) ;
#77 = EDGE_CURVE ( 'NONE', #232, #232, #192, .T. ) ;
#78 = FACE_BOUND ( 'NONE', #76, .T. ) ;
#79 = AXIS2_PLACEMENT_3D ( 'NONE', #110, #59, #85 ) ;
#80 = ORIENTED_EDGE ( 'NONE', *, *, #267, .F. ) ;
#81 = DIRECTION ( 'NONE',  ( 4.400944729304541823E-31, 1.000000000000000000, 1.224646799147353207E-16 ) ) ;
#82 = EDGE_LOOP ( 'NONE', ( #32 ) ) ;
#83 = FACE_OUTER_BOUND ( 'NONE', #190, .T. ) ;
#84 = EDGE_LOOP ( 'NONE', ( #245 ) ) ;
#85 = DIRECTION ( 'NONE',  ( 4.275831445896957731E-31, 1.000000000000000000, 1.224646799147352961E-16 ) ) ;
#86 = DIRECTION ( 'NONE',  ( 1.000000000000000000, 0.0000000000000000000, 0.0000000000000000000 ) ) ;
#87 = CIRCLE ( 'NONE', #102, 1.500000000000003331 ) ;
#88 = AXIS2_PLACEMENT_3D ( 'NONE', #175, #278, #61 ) ;
#89 = CARTESIAN_POINT ( 'NONE',  ( 1.047444401652940007E-14, -3.673940397442059868E-16, 3.000000000000000000 ) ) ;
#90 = DIRECTION ( 'NONE',  ( 3.930469274259680851E-31, 1.000000000000000000, 1.106328747434192658E-16 ) ) ;
#91 = APPROVAL_STATUS ( 'not_yet_approved' ) ;
#92 = DATE_AND_TIME ( #200, #144 ) ;
#93 = DIRECTION ( 'NONE',  ( -3.491481338843133355E-15, 1.224646799147353207E-16, -1.000000000000000000 ) ) ;
#94 = CC_DESIGN_APPROVAL ( #211, ( #9 ) ) ;
#95 = DIRECTION ( 'NONE',  ( 4.275831445896959482E-31, 1.000000000000000000, 1.224646799147353207E-16 ) ) ;
#96 = PRODUCT ( '963716', '963716', '', ( #62 ) ) ;
#97 = DIRECTION ( 'NONE',  ( -4.275831445896958607E-31, -1.000000000000000000, -1.224646799147353207E-16 ) ) ;
#98 = AXIS2_PLACEMENT_3D ( 'NONE', #125, #75, #135 ) ;
#99 = LOCAL_TIME ( 8, 27, 27.00000000000000000, #216 ) ;
#100 = EDGE_LOOP ( 'NONE', ( #212 ) ) ;
#101 = ORIENTED_EDGE ( 'NONE', *, *, #220, .F. ) ;
#102 = AXIS2_PLACEMENT_3D ( 'NONE', #150, #229, #36 ) ;
#103 = EDGE_LOOP ( 'NONE', ( #189 ) ) ;
#104 = CARTESIAN_POINT ( 'NONE',  ( 3.491481338843132369E-16, -1.224646799147352807E-17, 0.09999999999999996392 ) ) ;
#105 = VERTEX_POINT ( 'NONE', #152 ) ;
#106 = CIRCLE ( 'NONE', #277, 0.2449999999999994404 ) ;
#107 = DIRECTION ( 'NONE',  ( 0.0000000000000000000, 1.000000000000000000, 0.0000000000000000000 ) ) ;
#108 = CARTESIAN_POINT ( 'NONE',  ( 1.745740669421566362E-14, 0.2449999999999991351, 4.999999999999999112 ) ) ;
#109 = ADVANCED_FACE ( 'NONE', ( #69 ), #25, .F. ) ;
#110 = CARTESIAN_POINT ( 'NONE',  ( 0.0000000000000000000, 0.0000000000000000000, 0.0000000000000000000 ) ) ;
#111 = FACE_BOUND ( 'NONE', #209, .T. ) ;
#112 = AXIS2_PLACEMENT_3D ( 'NONE', #123, #221, #225 ) ;
#113 = PRODUCT_DEFINITION_FORMATION_WITH_SPECIFIED_SOURCE ( 'ANY', '', #96, .NOT_KNOWN. ) ;
#114 = SECURITY_CLASSIFICATION_LEVEL ( 'unclassified' ) ;
#115 = DIRECTION ( 'NONE',  ( -3.491481338843133355E-15, 1.224646799147353207E-16, -1.000000000000000000 ) ) ;
#116 = CC_DESIGN_PERSON_AND_ORGANIZATION_ASSIGNMENT ( #142, #163, ( #113 ) ) ;
#117 = DIRECTION ( 'NONE',  ( 3.491481338843133355E-15, -1.224646799147353207E-16, 1.000000000000000000 ) ) ;
#118 = COORDINATED_UNIVERSAL_TIME_OFFSET ( 1, 0, .AHEAD. ) ;
#119 = COORDINATED_UNIVERSAL_TIME_OFFSET ( 1, 0, .AHEAD. ) ;
#120 = CC_DESIGN_PERSON_AND_ORGANIZATION_ASSIGNMENT ( #217, #260, ( #113 ) ) ;
#121 = CONICAL_SURFACE ( 'NONE', #30, 1.200000000000003286, 0.7853981633974453924 ) ;
#122 = ORIENTED_EDGE ( 'NONE', *, *, #267, .T. ) ;
#123 = CARTESIAN_POINT ( 'NONE',  ( 1.866998543791202749E-14, -6.548549365651904395E-16, 5.347296355333846840 ) ) ;
#124 = EDGE_LOOP ( 'NONE', ( #246 ) ) ;
#125 = CARTESIAN_POINT ( 'NONE',  ( 4.291881094018580314E-14, -1.505389241419353775E-15, 12.29243601067233804 ) ) ;
#126 = AXIS2_PLACEMENT_3D ( 'NONE', #281, #93, #95 ) ;
#127 = LOCAL_TIME ( 8, 27, 27.00000000000000000, #51 ) ;
#128 = CC_DESIGN_PERSON_AND_ORGANIZATION_ASSIGNMENT ( #63, #280, ( #96 ) ) ;
#129 = EDGE_LOOP ( 'NONE', ( #272 ) ) ;
#130 = DIRECTION ( 'NONE',  ( 0.0000000000000000000, 0.0000000000000000000, 1.000000000000000000 ) ) ;
#131 = CARTESIAN_POINT ( 'NONE',  ( 1.047444401652940007E-14, 0.2449999999999990796, 3.000000000000000000 ) ) ;
#132 = CIRCLE ( 'NONE', #112, 0.2753844939755810683 ) ;
#133 = EDGE_CURVE ( 'NONE', #65, #65, #215, .T. ) ;
#134 =( LENGTH_UNIT ( ) NAMED_UNIT ( * ) SI_UNIT ( .MILLI., .METRE. ) );
#135 = DIRECTION ( 'NONE',  ( 0.0000000000000000000, 1.000000000000000000, 0.0000000000000000000 ) ) ;
#136 = CARTESIAN_POINT ( 'NONE',  ( 4.291881094018580314E-14, 1.499999999999995559, 12.29243601067233804 ) ) ;
#137 = APPROVAL_DATE_TIME ( #92, #60 ) ;
#138 = DATE_AND_TIME ( #70, #241 ) ;
#139 = FACE_OUTER_BOUND ( 'NONE', #166, .T. ) ;
#140 = ADVANCED_FACE ( 'NONE', ( #164, #139 ), #201, .T. ) ;
#141 = CARTESIAN_POINT ( 'NONE',  ( 1.326762908760390423E-13, -4.653657836759941941E-15, 38.00000000000000000 ) ) ;
#142 = PERSON_AND_ORGANIZATION ( #279, #235 ) ;
#143 = DIRECTION ( 'NONE',  ( -3.491481338843133355E-15, 1.224646799147353207E-16, -1.000000000000000000 ) ) ;
#144 = LOCAL_TIME ( 8, 27, 27.00000000000000000, #203 ) ;
#145 = ORIENTED_EDGE ( 'NONE', *, *, #77, .F. ) ;
#146 = DIRECTION ( 'NONE',  ( -3.491481338843133355E-15, 1.224646799147353207E-16, -1.000000000000000000 ) ) ;
#147 = FACE_OUTER_BOUND ( 'NONE', #100, .T. ) ;
#148 = AXIS2_PLACEMENT_3D ( 'NONE', #29, #2, #265 ) ;
#149 = MANIFOLD_SOLID_BREP ( 'Corps-Déplacer/Copier1[1]', #17 ) ;
#150 = CARTESIAN_POINT ( 'NONE',  ( 1.316288464743861212E-13, -4.616918432785521081E-15, 37.69999999999999574 ) ) ;
#151 = DIRECTION ( 'NONE',  ( -3.491481338843133355E-15, 1.224646799147353207E-16, -1.000000000000000000 ) ) ;
#152 = CARTESIAN_POINT ( 'NONE',  ( 1.047444401652940007E-14, 0.2449999999999990796, 3.000000000000000000 ) ) ;
#153 = VERTEX_POINT ( 'NONE', #11 ) ;
#154 = MANIFOLD_SOLID_BREP ( 'Corps-Déplacer/Copier1[2]', #227 ) ;
#155 = VERTEX_POINT ( 'NONE', #37 ) ;
#156 = VERTEX_POINT ( 'NONE', #253 ) ;
#157 = DATE_AND_TIME ( #26, #219 ) ;
#158 = CIRCLE ( 'NONE', #254, 0.2449999999999990241 ) ;
#159 = CARTESIAN_POINT ( 'NONE',  ( 1.047444401652940007E-14, 1.837205733760765717E-33, 3.000000000000000000 ) ) ;
#160 = ADVANCED_FACE ( 'NONE', ( #182, #71 ), #67, .F. ) ;
#161 = PERSON_AND_ORGANIZATION ( #279, #235 ) ;
#162 = CC_DESIGN_DATE_AND_TIME_ASSIGNMENT ( #157, #177, ( #9 ) ) ;
#163 = PERSON_AND_ORGANIZATION_ROLE ( 'design_supplier' ) ;
#164 = FACE_OUTER_BOUND ( 'NONE', #270, .T. ) ;
#165 = ADVANCED_FACE ( 'NONE', ( #83, #147 ), #35, .T. ) ;
#166 = EDGE_LOOP ( 'NONE', ( #266 ) ) ;
#167 = ORIENTED_EDGE ( 'NONE', *, *, #220, .T. ) ;
#168 = CARTESIAN_POINT ( 'NONE',  ( 0.0000000000000000000, 0.0000000000000000000, 0.0000000000000000000 ) ) ;
#169 = DIRECTION ( 'NONE',  ( 0.0000000000000000000, 1.000000000000000000, 0.0000000000000000000 ) ) ;
#170 = VERTEX_POINT ( 'NONE', #233 ) ;
#171 = CARTESIAN_POINT ( 'NONE',  ( 1.047444401652940007E-14, -3.673940397442059868E-16, 3.000000000000000000 ) ) ;
#172 = APPLICATION_PROTOCOL_DEFINITION ( 'international standard', 'config_control_design', 1994, #15 ) ;
#173 = AXIS2_PLACEMENT_3D ( 'NONE', #223, #268, #81 ) ;
#174 = DIRECTION ( 'NONE',  ( -3.491481338843133355E-15, 1.224646799147353207E-16, -1.000000000000000000 ) ) ;
#175 = CARTESIAN_POINT ( 'NONE',  ( 4.291881094018580314E-14, -1.505389241419353775E-15, 12.29243601067233804 ) ) ;
#176 = CC_DESIGN_PERSON_AND_ORGANIZATION_ASSIGNMENT ( #161, #234, ( #9 ) ) ;
#177 = DATE_TIME_ROLE ( 'creation_date' ) ;
#178 = CARTESIAN_POINT ( 'NONE',  ( 1.326762908760390423E-13, -4.653657836759941941E-15, 38.00000000000000000 ) ) ;
#179 = APPROVAL_ROLE ( '' ) ;
#180 = SECURITY_CLASSIFICATION ( '', '', #114 ) ;
#181 = ADVANCED_FACE ( 'NONE', ( #78, #57 ), #222, .T. ) ;
#182 = FACE_OUTER_BOUND ( 'NONE', #103, .T. ) ;
#183 = APPROVAL_STATUS ( 'not_yet_approved' ) ;
#184 = PERSON_AND_ORGANIZATION ( #279, #235 ) ;
#185 = DIRECTION ( 'NONE',  ( -3.491481338843133355E-15, 1.224646799147353207E-16, -1.000000000000000000 ) ) ;
#186 = AXIS2_PLACEMENT_3D ( 'NONE', #14, #264, #236 ) ;
#187 = CC_DESIGN_APPROVAL ( #249, ( #113 ) ) ;
#188 = CARTESIAN_POINT ( 'NONE',  ( 3.491481338843132369E-16, -1.224646799147352807E-17, 0.09999999999999996392 ) ) ;
#189 = ORIENTED_EDGE ( 'NONE', *, *, #133, .F. ) ;
#190 = EDGE_LOOP ( 'NONE', ( #207 ) ) ;
#191 = EDGE_LOOP ( 'NONE', ( #248 ) ) ;
#192 = CIRCLE ( 'NONE', #257, 0.1872649730810372615 ) ;
#193 = FACE_OUTER_BOUND ( 'NONE', #53, .T. ) ;
#194 = FACE_OUTER_BOUND ( 'NONE', #250, .T. ) ;
#195 = DIRECTION ( 'NONE',  ( 0.0000000000000000000, 1.000000000000000000, 0.0000000000000000000 ) ) ;
#196 = CARTESIAN_POINT ( 'NONE',  ( 1.047444401652940007E-14, 1.837205733760765717E-33, 3.000000000000000000 ) ) ;
#197 = PERSON_AND_ORGANIZATION ( #279, #235 ) ;
#198 = DIRECTION ( 'NONE',  ( 4.275831445896958607E-31, 1.000000000000000000, 1.224646799147353454E-16 ) ) ;
#199 = EDGE_CURVE ( 'NONE', #156, #156, #132, .T. ) ;
#200 = CALENDAR_DATE ( 2021, 1, 12 ) ;
#201 = CYLINDRICAL_SURFACE ( 'NONE', #126, 1.500000000000000000 ) ;
#202 = APPROVAL_ROLE ( '' ) ;
#203 = COORDINATED_UNIVERSAL_TIME_OFFSET ( 1, 0, .AHEAD. ) ;
#204 = CARTESIAN_POINT ( 'NONE',  ( -1.747081373806527290E-31, 6.127936553689398920E-33, -5.003839929974836457E-17 ) ) ;
#205 = PRODUCT_RELATED_PRODUCT_CATEGORY ( 'detail', '', ( #96 ) ) ;
#206 = DESIGN_CONTEXT ( 'detailed design', #33, 'design' ) ;
#207 = ORIENTED_EDGE ( 'NONE', *, *, #8, .F. ) ;
#208 = ADVANCED_FACE ( 'NONE', ( #31 ), #6, .F. ) ;
#209 = EDGE_LOOP ( 'NONE', ( #56 ) ) ;
#210 = AXIS2_PLACEMENT_3D ( 'NONE', #283, #185, #262 ) ;
#211 = APPROVAL ( #91, 'UNSPECIFIED' ) ;
#212 = ORIENTED_EDGE ( 'NONE', *, *, #133, .T. ) ;
#213 = FACE_OUTER_BOUND ( 'NONE', #124, .T. ) ;
#214 =( NAMED_UNIT ( * ) PLANE_ANGLE_UNIT ( ) SI_UNIT ( $, .RADIAN. ) );
#215 = CIRCLE ( 'NONE', #210, 0.2449999999999997180 ) ;
#216 = COORDINATED_UNIVERSAL_TIME_OFFSET ( 1, 0, .AHEAD. ) ;
#217 = PERSON_AND_ORGANIZATION ( #279, #235 ) ;
#218 = APPLICATION_PROTOCOL_DEFINITION ( 'international standard', 'config_control_design', 1994, #33 ) ;
#219 = LOCAL_TIME ( 8, 27, 27.00000000000000000, #119 ) ;
#220 = EDGE_CURVE ( 'NONE', #231, #231, #12, .T. ) ;
#221 = DIRECTION ( 'NONE',  ( -3.491481338843133355E-15, 1.224646799147353207E-16, -1.000000000000000000 ) ) ;
#222 = CONICAL_SURFACE ( 'NONE', #263, 0.2449999999999990241, 0.5235987755982925984 ) ;
#223 = CARTESIAN_POINT ( 'NONE',  ( 1.745740669421566678E-14, -4.336808689942017736E-16, 5.000000000000000000 ) ) ;
#224 = ADVANCED_FACE ( 'NONE', ( #213, #275 ), #41, .T. ) ;
#225 = DIRECTION ( 'NONE',  ( 0.0000000000000000000, 1.000000000000000000, 0.0000000000000000000 ) ) ;
#226 = EDGE_LOOP ( 'NONE', ( #5 ) ) ;
#227 = CLOSED_SHELL ( 'NONE', ( #208, #181, #224, #242 ) ) ;
#228 = DIRECTION ( 'NONE',  ( 3.491481338843133355E-15, -1.224646799147353207E-16, 1.000000000000000000 ) ) ;
#229 = DIRECTION ( 'NONE',  ( -3.491481338843133355E-15, 1.224646799147353207E-16, -1.000000000000000000 ) ) ;
#230 = DIRECTION ( 'NONE',  ( 3.491481338843133355E-15, -1.224646799147353207E-16, 1.000000000000000000 ) ) ;
#231 = VERTEX_POINT ( 'NONE', #136 ) ;
#232 = VERTEX_POINT ( 'NONE', #274 ) ;
#233 = CARTESIAN_POINT ( 'NONE',  ( 1.326762908760390423E-13, 1.199999999999998845, 38.00000000000000000 ) ) ;
#234 = PERSON_AND_ORGANIZATION_ROLE ( 'creator' ) ;
#235 = ORGANIZATION ( 'UNSPECIFIED', 'UNSPECIFIED', '' ) ;
#236 = DIRECTION ( 'NONE',  ( 4.275831445896958607E-31, 1.000000000000000000, 1.224646799147353207E-16 ) ) ;
#237 = DATE_TIME_ROLE ( 'classification_date' ) ;
#238 = PRODUCT_DEFINITION_SHAPE ( 'NONE', 'NONE',  #9 ) ;
#239 = APPROVAL_STATUS ( 'not_yet_approved' ) ;
#240 = ADVANCED_FACE ( 'NONE', ( #111, #44 ), #19, .T. ) ;
#241 = LOCAL_TIME ( 8, 27, 27.00000000000000000, #118 ) ;
#242 = ADVANCED_FACE ( 'NONE', ( #193 ), #16, .T. ) ;
#243 = AXIS2_PLACEMENT_3D ( 'NONE', #196, #230, #255 ) ;
#244 = ORIENTED_EDGE ( 'NONE', *, *, #47, .F. ) ;
#245 = ORIENTED_EDGE ( 'NONE', *, *, #77, .T. ) ;
#246 = ORIENTED_EDGE ( 'NONE', *, *, #42, .F. ) ;
#247 = DIRECTION ( 'NONE',  ( 4.275831445896958607E-31, 1.000000000000000000, 1.224646799147353207E-16 ) ) ;
#248 = ORIENTED_EDGE ( 'NONE', *, *, #199, .T. ) ;
#249 = APPROVAL ( #239, 'UNSPECIFIED' ) ;
#250 = EDGE_LOOP ( 'NONE', ( #244 ) ) ;
#251 = DIRECTION ( 'NONE',  ( -3.491481338843133355E-15, 1.224646799147353207E-16, -1.000000000000000000 ) ) ;
#252 = PLANE ( 'NONE',  #186 ) ;
#253 = CARTESIAN_POINT ( 'NONE',  ( 1.866998543791202749E-14, 0.2753844939755804022, 5.347296355333846840 ) ) ;
#254 = AXIS2_PLACEMENT_3D ( 'NONE', #104, #174, #90 ) ;
#255 = DIRECTION ( 'NONE',  ( -4.275831445896958607E-31, -1.000000000000000000, -1.224646799147353207E-16 ) ) ;
#256 = PERSON_AND_ORGANIZATION ( #279, #235 ) ;
#257 = AXIS2_PLACEMENT_3D ( 'NONE', #204, #28, #198 ) ;
#258 =( GEOMETRIC_REPRESENTATION_CONTEXT ( 3 ) GLOBAL_UNCERTAINTY_ASSIGNED_CONTEXT ( ( #24 ) ) GLOBAL_UNIT_ASSIGNED_CONTEXT ( ( #134, #214, #18 ) ) REPRESENTATION_CONTEXT ( 'NONE', 'WORKASPACE' ) );
#259 = FACE_BOUND ( 'NONE', #129, .T. ) ;
#260 = PERSON_AND_ORGANIZATION_ROLE ( 'creator' ) ;
#261 = CALENDAR_DATE ( 2021, 1, 12 ) ;
#262 = DIRECTION ( 'NONE',  ( 0.0000000000000000000, 1.000000000000000000, 0.0000000000000000000 ) ) ;
#263 = AXIS2_PLACEMENT_3D ( 'NONE', #188, #228, #54 ) ;
#264 = DIRECTION ( 'NONE',  ( -3.491481338843133355E-15, 1.224646799147353207E-16, -1.000000000000000000 ) ) ;
#265 = DIRECTION ( 'NONE',  ( -4.275831445896958607E-31, -1.000000000000000000, -1.224646799147353207E-16 ) ) ;
#266 = ORIENTED_EDGE ( 'NONE', *, *, #20, .T. ) ;
#267 = EDGE_CURVE ( 'NONE', #38, #38, #40, .T. ) ;
#268 = DIRECTION ( 'NONE',  ( -3.491481338843133355E-15, 1.224646799147353207E-16, -1.000000000000000000 ) ) ;
#269 = CIRCLE ( 'NONE', #39, 1.200000000000003286 ) ;
#270 = EDGE_LOOP ( 'NONE', ( #101 ) ) ;
#271 = EDGE_LOOP ( 'NONE', ( #122 ) ) ;
#272 = ORIENTED_EDGE ( 'NONE', *, *, #47, .T. ) ;
#273 = APPROVAL_PERSON_ORGANIZATION ( #1, #60, #202 ) ;
#274 = CARTESIAN_POINT ( 'NONE',  ( -9.463679131915805687E-32, 0.1872649730810372615, -2.710505431213760777E-17 ) ) ;
#275 = FACE_OUTER_BOUND ( 'NONE', #271, .T. ) ;
#276 = CARTESIAN_POINT ( 'NONE',  ( 0.0000000000000000000, 0.0000000000000000000, 0.0000000000000000000 ) ) ;
#277 = AXIS2_PLACEMENT_3D ( 'NONE', #171, #146, #169 ) ;
#278 = DIRECTION ( 'NONE',  ( 3.491481338843133355E-15, -1.224646799147353207E-16, 1.000000000000000000 ) ) ;
#279 = PERSON ( 'UNSPECIFIED', 'UNSPECIFIED', 'UNSPECIFIED', ('UNSPECIFIED'), ('UNSPECIFIED'), ('UNSPECIFIED') ) ;
#280 = PERSON_AND_ORGANIZATION_ROLE ( 'design_owner' ) ;
#281 = CARTESIAN_POINT ( 'NONE',  ( 0.0000000000000000000, 0.0000000000000000000, 0.0000000000000000000 ) ) ;
#282 = CC_DESIGN_SECURITY_CLASSIFICATION ( #180, ( #113 ) ) ;
#283 = CARTESIAN_POINT ( 'NONE',  ( 1.745740669421566362E-14, -6.123233995736765296E-16, 4.999999999999999112 ) ) ;
ENDSEC;
END-ISO-10303-21;
