ISO-10303-21;
HEADER;
FILE_DESCRIPTION (( 'STEP AP203' ),
    '1' );
FILE_NAME ('963588.step',
    '2021-12-01T10:40:29',
    ( '' ),
    ( '' ),
    'SwSTEP 2.0',
    'SolidWorks 2019',
    '' );
FILE_SCHEMA (( 'CONFIG_CONTROL_DESIGN' ));
ENDSEC;

DATA;
#1 = CALENDAR_DATE ( 2021, 1, 12 ) ;
#2 = PLANE ( 'NONE',  #86 ) ;
#3 = DIRECTION ( 'NONE',  ( 3.491481338843133355E-15, -1.224646799147353207E-16, 1.000000000000000000 ) ) ;
#4 = CARTESIAN_POINT ( 'NONE',  ( 0.0000000000000000000, 0.0000000000000000000, 0.0000000000000000000 ) ) ;
#5 = DIRECTION ( 'NONE',  ( 4.275831445896958607E-31, 1.000000000000000000, 1.224646799147353207E-16 ) ) ;
#6 = DIRECTION ( 'NONE',  ( 4.275831445896958607E-31, 1.000000000000000000, 1.224646799147353207E-16 ) ) ;
#7 = ADVANCED_FACE ( 'NONE', ( #298 ), #198, .F. ) ;
#8 = AXIS2_PLACEMENT_3D ( 'NONE', #265, #78, #167 ) ;
#9 = VERTEX_POINT ( 'NONE', #174 ) ;
#10 = VERTEX_POINT ( 'NONE', #153 ) ;
#11 = DIRECTION ( 'NONE',  ( 1.000000000000000000, 0.0000000000000000000, 0.0000000000000000000 ) ) ;
#12 = EDGE_CURVE ( 'NONE', #81, #81, #63, .T. ) ;
#13 = AXIS2_PLACEMENT_3D ( 'NONE', #54, #28, #77 ) ;
#14 = CC_DESIGN_APPROVAL ( #31, ( #244 ) ) ;
#15 = APPLICATION_PROTOCOL_DEFINITION ( 'international standard', 'config_control_design', 1994, #291 ) ;
#16 = CARTESIAN_POINT ( 'NONE',  ( 1.316288464743861212E-13, -4.616918432785521081E-15, 37.69999999999999574 ) ) ;
#17 = AXIS2_PLACEMENT_3D ( 'NONE', #163, #69, #159 ) ;
#18 = PERSON_AND_ORGANIZATION_ROLE ( 'classification_officer' ) ;
#19 = DIRECTION ( 'NONE',  ( -3.491481338843133355E-15, 1.224646799147353207E-16, -1.000000000000000000 ) ) ;
#20 = DATE_AND_TIME ( #23, #290 ) ;
#21 = CC_DESIGN_PERSON_AND_ORGANIZATION_ASSIGNMENT ( #251, #204, ( #165 ) ) ;
#22 = FACE_BOUND ( 'NONE', #245, .T. ) ;
#23 = CALENDAR_DATE ( 2021, 1, 12 ) ;
#24 = EDGE_LOOP ( 'NONE', ( #241 ) ) ;
#25 = AXIS2_PLACEMENT_3D ( 'NONE', #109, #95, #202 ) ;
#26 = DIRECTION ( 'NONE',  ( -3.491481338843133355E-15, 1.224646799147353207E-16, -1.000000000000000000 ) ) ;
#27 = DIRECTION ( 'NONE',  ( 0.0000000000000000000, -1.000000000000000000, 0.0000000000000000000 ) ) ;
#28 = DIRECTION ( 'NONE',  ( -3.491481338843133355E-15, 1.224646799147353207E-16, -1.000000000000000000 ) ) ;
#29 = AXIS2_PLACEMENT_3D ( 'NONE', #16, #19, #91 ) ;
#30 = CARTESIAN_POINT ( 'NONE',  ( 1.326762908760390423E-13, 8.998558695971103225E-33, 38.00000000000000000 ) ) ;
#31 = APPROVAL ( #158, 'UNSPECIFIED' ) ;
#32 = FACE_BOUND ( 'NONE', #87, .T. ) ;
#33 = ORIENTED_EDGE ( 'NONE', *, *, #183, .T. ) ;
#34 = CONICAL_SURFACE ( 'NONE', #100, 0.6299999999999993383, 0.5235987755982928205 ) ;
#35 = VERTEX_POINT ( 'NONE', #242 ) ;
#36 = PRODUCT_DEFINITION_SHAPE ( 'NONE', 'NONE',  #165 ) ;
#37 = EDGE_LOOP ( 'NONE', ( #33 ) ) ;
#38 = ADVANCED_FACE ( 'NONE', ( #89, #75 ), #175, .F. ) ;
#39 =( NAMED_UNIT ( * ) PLANE_ANGLE_UNIT ( ) SI_UNIT ( $, .RADIAN. ) );
#40 = VERTEX_POINT ( 'NONE', #270 ) ;
#41 = CIRCLE ( 'NONE', #148, 0.5299999999999992495 ) ;
#42 = APPROVAL ( #201, 'UNSPECIFIED' ) ;
#43 = DIRECTION ( 'NONE',  ( -3.491481338843133355E-15, 1.224646799147353207E-16, -1.000000000000000000 ) ) ;
#44 = APPROVAL_STATUS ( 'not_yet_approved' ) ;
#45 = EDGE_LOOP ( 'NONE', ( #67 ) ) ;
#46 = CLOSED_SHELL ( 'NONE', ( #266, #120, #292, #38, #193, #247, #286, #271 ) ) ;
#47 = CARTESIAN_POINT ( 'NONE',  ( -3.022978615032151425E-31, 1.060318164557817615E-32, -8.658154867967258039E-17 ) ) ;
#48 = PERSON_AND_ORGANIZATION ( #205, #303 ) ;
#49 = CARTESIAN_POINT ( 'NONE',  ( 4.538925740496073362E-14, -1.734723475976807094E-15, 13.00000000000000000 ) ) ;
#50 = COORDINATED_UNIVERSAL_TIME_OFFSET ( 1, 0, .AHEAD. ) ;
#51 = CARTESIAN_POINT ( 'NONE',  ( 4.660183614865709118E-14, -1.634572375883072808E-15, 13.34729635533384595 ) ) ;
#52 = CIRCLE ( 'NONE', #206, 0.6300000000000001155 ) ;
#53 = SECURITY_CLASSIFICATION_LEVEL ( 'unclassified' ) ;
#54 = CARTESIAN_POINT ( 'NONE',  ( 2.094888803305880013E-14, -7.347880794884119736E-16, 6.000000000000000000 ) ) ;
#55 = PLANE ( 'NONE',  #121 ) ;
#56 = ORIENTED_EDGE ( 'NONE', *, *, #221, .F. ) ;
#57 = CARTESIAN_POINT ( 'NONE',  ( 2.094888803305880013E-14, 4.724243315384841475E-33, 6.000000000000000000 ) ) ;
#58 = AXIS2_PLACEMENT_3D ( 'NONE', #213, #263, #214 ) ;
#59 = FACE_OUTER_BOUND ( 'NONE', #280, .T. ) ;
#60 = EDGE_LOOP ( 'NONE', ( #101 ) ) ;
#61 = VERTEX_POINT ( 'NONE', #294 ) ;
#62 = CIRCLE ( 'NONE', #71, 0.6299999999999993383 ) ;
#63 = CIRCLE ( 'NONE', #104, 1.499999999999997780 ) ;
#64 = LOCAL_TIME ( 11, 40, 29.00000000000000000, #50 ) ;
#65 = EDGE_LOOP ( 'NONE', ( #105 ) ) ;
#66 = DATE_AND_TIME ( #162, #132 ) ;
#67 = ORIENTED_EDGE ( 'NONE', *, *, #70, .F. ) ;
#68 = CALENDAR_DATE ( 2021, 1, 12 ) ;
#69 = DIRECTION ( 'NONE',  ( -3.491481338843133355E-15, 1.224646799147353207E-16, -1.000000000000000000 ) ) ;
#70 = EDGE_CURVE ( 'NONE', #273, #273, #235, .T. ) ;
#71 = AXIS2_PLACEMENT_3D ( 'NONE', #254, #26, #187 ) ;
#72 = APPROVAL_PERSON_ORGANIZATION ( #182, #31, #258 ) ;
#73 = ORIENTED_EDGE ( 'NONE', *, *, #130, .F. ) ;
#74 = DIRECTION ( 'NONE',  ( 0.0000000000000000000, 1.000000000000000000, 0.0000000000000000000 ) ) ;
#75 = FACE_OUTER_BOUND ( 'NONE', #234, .T. ) ;
#76 = EDGE_CURVE ( 'NONE', #61, #61, #41, .T. ) ;
#77 = DIRECTION ( 'NONE',  ( 0.0000000000000000000, 1.000000000000000000, 0.0000000000000000000 ) ) ;
#78 = DIRECTION ( 'NONE',  ( -3.491481338843133355E-15, 1.224646799147353207E-16, -1.000000000000000000 ) ) ;
#79 = EDGE_LOOP ( 'NONE', ( #166 ) ) ;
#80 = FACE_OUTER_BOUND ( 'NONE', #65, .T. ) ;
#81 = VERTEX_POINT ( 'NONE', #223 ) ;
#82 = EDGE_CURVE ( 'NONE', #147, #147, #117, .T. ) ;
#83 = CARTESIAN_POINT ( 'NONE',  ( -9.463679131915802403E-32, 0.4856624327025949595, -2.710505431213761085E-17 ) ) ;
#84 = CARTESIAN_POINT ( 'NONE',  ( 2.094888803305880013E-14, 0.6299999999999993383, 6.000000000000000000 ) ) ;
#85 = ADVANCED_FACE ( 'NONE', ( #181 ), #295, .T. ) ;
#86 = AXIS2_PLACEMENT_3D ( 'NONE', #57, #3, #240 ) ;
#87 = EDGE_LOOP ( 'NONE', ( #125 ) ) ;
#88 = LOCAL_TIME ( 11, 40, 29.00000000000000000, #232 ) ;
#89 = FACE_OUTER_BOUND ( 'NONE', #219, .T. ) ;
#90 = APPROVAL_ROLE ( '' ) ;
#91 = DIRECTION ( 'NONE',  ( 0.0000000000000000000, 1.000000000000000000, 0.0000000000000000000 ) ) ;
#92 = ORIENTED_EDGE ( 'NONE', *, *, #183, .F. ) ;
#93 = AXIS2_PLACEMENT_3D ( 'NONE', #116, #289, #172 ) ;
#94 = COORDINATED_UNIVERSAL_TIME_OFFSET ( 1, 0, .AHEAD. ) ;
#95 = DIRECTION ( 'NONE',  ( 3.491481338843133355E-15, -1.224646799147353207E-16, 1.000000000000000000 ) ) ;
#96 = COORDINATED_UNIVERSAL_TIME_OFFSET ( 1, 0, .AHEAD. ) ;
#97 = AXIS2_PLACEMENT_3D ( 'NONE', #227, #151, #11 ) ;
#98 = DESIGN_CONTEXT ( 'detailed design', #291, 'design' ) ;
#99 = FACE_OUTER_BOUND ( 'NONE', #149, .T. ) ;
#100 = AXIS2_PLACEMENT_3D ( 'NONE', #203, #301, #113 ) ;
#101 = ORIENTED_EDGE ( 'NONE', *, *, #76, .F. ) ;
#102 = ORIENTED_EDGE ( 'NONE', *, *, #211, .F. ) ;
#103 = APPLICATION_PROTOCOL_DEFINITION ( 'international standard', 'config_control_design', 1994, #115 ) ;
#104 = AXIS2_PLACEMENT_3D ( 'NONE', #157, #43, #276 ) ;
#105 = ORIENTED_EDGE ( 'NONE', *, *, #170, .F. ) ;
#106 = APPROVAL ( #44, 'UNSPECIFIED' ) ;
#107 = DATE_TIME_ROLE ( 'classification_date' ) ;
#108 = MANIFOLD_SOLID_BREP ( 'Corps-Déplacer/Copier1[2]', #259 ) ;
#109 = CARTESIAN_POINT ( 'NONE',  ( 2.094888803305880013E-14, 4.724243315384841475E-33, 6.000000000000000000 ) ) ;
#110 = FACE_OUTER_BOUND ( 'NONE', #215, .T. ) ;
#111 = APPROVAL_DATE_TIME ( #20, #106 ) ;
#112 = CC_DESIGN_DATE_AND_TIME_ASSIGNMENT ( #156, #107, ( #217 ) ) ;
#113 = DIRECTION ( 'NONE',  ( -3.057031657757520598E-31, -1.000000000000000000, -8.604779146710362140E-17 ) ) ;
#114 = AXIS2_PLACEMENT_3D ( 'NONE', #4, #239, #6 ) ;
#115 = APPLICATION_CONTEXT ( 'configuration controlled 3d designs of mechanical parts and assemblies' ) ;
#116 = CARTESIAN_POINT ( 'NONE',  ( 1.326762908760390423E-13, -4.653657836759941941E-15, 38.00000000000000000 ) ) ;
#117 = CIRCLE ( 'NONE', #29, 1.500000000000003331 ) ;
#118 = DIRECTION ( 'NONE',  ( -3.491481338843133355E-15, 1.224646799147353207E-16, -1.000000000000000000 ) ) ;
#119 = FACE_OUTER_BOUND ( 'NONE', #287, .T. ) ;
#120 = ADVANCED_FACE ( 'NONE', ( #184, #278 ), #249, .T. ) ;
#121 = AXIS2_PLACEMENT_3D ( 'NONE', #30, #118, #5 ) ;
#122 = EDGE_LOOP ( 'NONE', ( #144 ) ) ;
#123 = LOCAL_TIME ( 11, 40, 29.00000000000000000, #134 ) ;
#124 = CARTESIAN_POINT ( 'NONE',  ( 1.316288464743861212E-13, 1.499999999999998668, 37.69999999999999574 ) ) ;
#125 = ORIENTED_EDGE ( 'NONE', *, *, #70, .T. ) ;
#126 = PRODUCT_RELATED_PRODUCT_CATEGORY ( 'detail', '', ( #218 ) ) ;
#127 = PERSON_AND_ORGANIZATION ( #205, #303 ) ;
#128 = VERTEX_POINT ( 'NONE', #83 ) ;
#129 = DIRECTION ( 'NONE',  ( -3.491481338843133355E-15, 1.224646799147353207E-16, -1.000000000000000000 ) ) ;
#130 = EDGE_CURVE ( 'NONE', #35, #35, #190, .T. ) ;
#131 = APPROVAL_ROLE ( '' ) ;
#132 = LOCAL_TIME ( 11, 40, 29.00000000000000000, #96 ) ;
#133 = DIRECTION ( 'NONE',  ( -3.491481338843133355E-15, 1.224646799147353207E-16, -1.000000000000000000 ) ) ;
#134 = COORDINATED_UNIVERSAL_TIME_OFFSET ( 1, 0, .AHEAD. ) ;
#135 = CC_DESIGN_DATE_AND_TIME_ASSIGNMENT ( #66, #299, ( #165 ) ) ;
#136 = DIRECTION ( 'NONE',  ( 4.275831445896958607E-31, 1.000000000000000000, 1.224646799147353207E-16 ) ) ;
#137 = PERSON_AND_ORGANIZATION_ROLE ( 'design_supplier' ) ;
#138 = DIRECTION ( 'NONE',  ( 0.0000000000000000000, 1.000000000000000000, 0.0000000000000000000 ) ) ;
#139 = AXIS2_PLACEMENT_3D ( 'NONE', #49, #129, #228 ) ;
#140 = CALENDAR_DATE ( 2021, 1, 12 ) ;
#141 = FACE_OUTER_BOUND ( 'NONE', #122, .T. ) ;
#142 = FACE_OUTER_BOUND ( 'NONE', #45, .T. ) ;
#143 = CIRCLE ( 'NONE', #8, 0.5300000000000000266 ) ;
#144 = ORIENTED_EDGE ( 'NONE', *, *, #82, .T. ) ;
#145 = CARTESIAN_POINT ( 'NONE',  ( 2.094888803305880013E-14, -7.347880794884119736E-16, 6.000000000000000000 ) ) ;
#146 = EDGE_LOOP ( 'NONE', ( #102 ) ) ;
#147 = VERTEX_POINT ( 'NONE', #124 ) ;
#148 = AXIS2_PLACEMENT_3D ( 'NONE', #236, #161, #230 ) ;
#149 = EDGE_LOOP ( 'NONE', ( #238 ) ) ;
#150 = CC_DESIGN_SECURITY_CLASSIFICATION ( #217, ( #244 ) ) ;
#151 = DIRECTION ( 'NONE',  ( 0.0000000000000000000, 0.0000000000000000000, 1.000000000000000000 ) ) ;
#152 = CC_DESIGN_APPROVAL ( #106, ( #165 ) ) ;
#153 = CARTESIAN_POINT ( 'NONE',  ( 2.094888803305880013E-14, 0.6299999999999993383, 6.000000000000000000 ) ) ;
#154 = APPROVAL_PERSON_ORGANIZATION ( #255, #106, #131 ) ;
#155 = DIRECTION ( 'NONE',  ( 3.491481338843133355E-15, -1.224646799147353207E-16, 1.000000000000000000 ) ) ;
#156 = DATE_AND_TIME ( #140, #123 ) ;
#157 = CARTESIAN_POINT ( 'NONE',  ( 6.520732687838371458E-14, -2.287165142604692625E-15, 18.67612069208122705 ) ) ;
#158 = APPROVAL_STATUS ( 'not_yet_approved' ) ;
#159 = DIRECTION ( 'NONE',  ( 0.0000000000000000000, 1.000000000000000000, 0.0000000000000000000 ) ) ;
#160 = SHAPE_DEFINITION_REPRESENTATION ( #36, #281 ) ;
#161 = DIRECTION ( 'NONE',  ( -3.491481338843133355E-15, 1.224646799147353207E-16, -1.000000000000000000 ) ) ;
#162 = CALENDAR_DATE ( 2021, 1, 12 ) ;
#163 = CARTESIAN_POINT ( 'NONE',  ( 2.155363034031430415E-14, -7.559995842629104915E-16, 6.173205080756892116 ) ) ;
#164 = APPROVAL_DATE_TIME ( #302, #31 ) ;
#165 = PRODUCT_DEFINITION ( 'UNKNOWN', '', #244, #98 ) ;
#166 = ORIENTED_EDGE ( 'NONE', *, *, #76, .T. ) ;
#167 = DIRECTION ( 'NONE',  ( 0.0000000000000000000, 1.000000000000000000, 0.0000000000000000000 ) ) ;
#168 = EDGE_LOOP ( 'NONE', ( #73 ) ) ;
#169 = DIRECTION ( 'NONE',  ( 3.491481338843133355E-15, -1.224646799147353207E-16, 1.000000000000000000 ) ) ;
#170 = EDGE_CURVE ( 'NONE', #40, #40, #62, .T. ) ;
#171 = AXIS2_PLACEMENT_3D ( 'NONE', #185, #133, #74 ) ;
#172 = DIRECTION ( 'NONE',  ( 0.0000000000000000000, 1.000000000000000000, 0.0000000000000000000 ) ) ;
#173 = EDGE_LOOP ( 'NONE', ( #191 ) ) ;
#174 = CARTESIAN_POINT ( 'NONE',  ( 4.538925740496072731E-14, 0.5299999999999983613, 12.99999999999999822 ) ) ;
#175 = TOROIDAL_SURFACE ( 'NONE', #139, 2.530000000000000249, 2.000000000000000000 ) ;
#176 =( NAMED_UNIT ( * ) SI_UNIT ( $, .STERADIAN. ) SOLID_ANGLE_UNIT ( ) );
#177 =( LENGTH_UNIT ( ) NAMED_UNIT ( * ) SI_UNIT ( .MILLI., .METRE. ) );
#178 = AXIS2_PLACEMENT_3D ( 'NONE', #47, #233, #136 ) ;
#179 = CC_DESIGN_APPROVAL ( #42, ( #217 ) ) ;
#180 = EDGE_LOOP ( 'NONE', ( #275 ) ) ;
#181 = FACE_OUTER_BOUND ( 'NONE', #146, .T. ) ;
#182 = PERSON_AND_ORGANIZATION ( #205, #303 ) ;
#183 = EDGE_CURVE ( 'NONE', #128, #128, #279, .T. ) ;
#184 = FACE_OUTER_BOUND ( 'NONE', #268, .T. ) ;
#185 = CARTESIAN_POINT ( 'NONE',  ( 1.326762908760390423E-13, -4.653657836759941941E-15, 38.00000000000000000 ) ) ;
#186 = PERSON_AND_ORGANIZATION ( #205, #303 ) ;
#187 = DIRECTION ( 'NONE',  ( 3.057031657757520598E-31, 1.000000000000000000, 8.604779146710362140E-17 ) ) ;
#188 = ADVANCED_FACE ( 'NONE', ( #22, #110 ), #34, .T. ) ;
#189 = FACE_OUTER_BOUND ( 'NONE', #173, .T. ) ;
#190 = CIRCLE ( 'NONE', #269, 0.5603844939755818766 ) ;
#191 = ORIENTED_EDGE ( 'NONE', *, *, #211, .T. ) ;
#192 = UNCERTAINTY_MEASURE_WITH_UNIT (LENGTH_MEASURE( 1.000000000000000082E-05 ), #177, 'distance_accuracy_value', 'NONE');
#193 = ADVANCED_FACE ( 'NONE', ( #207, #99 ), #196, .T. ) ;
#194 = CYLINDRICAL_SURFACE ( 'NONE', #114, 1.500000000000000444 ) ;
#195 = CYLINDRICAL_SURFACE ( 'NONE', #264, 0.5299999999999996936 ) ;
#196 = CONICAL_SURFACE ( 'NONE', #296, 1.499999999999997780, 0.1745329251994260367 ) ;
#197 = EDGE_CURVE ( 'NONE', #9, #9, #143, .T. ) ;
#198 = PLANE ( 'NONE',  #284 ) ;
#199 = CONICAL_SURFACE ( 'NONE', #93, 1.200000000000003286, 0.7853981633974453924 ) ;
#200 = ORIENTED_EDGE ( 'NONE', *, *, #130, .T. ) ;
#201 = APPROVAL_STATUS ( 'not_yet_approved' ) ;
#202 = DIRECTION ( 'NONE',  ( -4.275831445896958607E-31, -1.000000000000000000, -1.224646799147353207E-16 ) ) ;
#203 = CARTESIAN_POINT ( 'NONE',  ( 8.728703347107831416E-16, -3.061616997868382402E-17, 0.2499999999999999445 ) ) ;
#204 = PERSON_AND_ORGANIZATION_ROLE ( 'creator' ) ;
#205 = PERSON ( 'UNSPECIFIED', 'UNSPECIFIED', 'UNSPECIFIED', ('UNSPECIFIED'), ('UNSPECIFIED'), ('UNSPECIFIED') ) ;
#206 = AXIS2_PLACEMENT_3D ( 'NONE', #145, #209, #260 ) ;
#207 = FACE_BOUND ( 'NONE', #168, .T. ) ;
#208 = FACE_OUTER_BOUND ( 'NONE', #24, .T. ) ;
#209 = DIRECTION ( 'NONE',  ( -3.491481338843133355E-15, 1.224646799147353207E-16, -1.000000000000000000 ) ) ;
#210 = MANIFOLD_SOLID_BREP ( 'Corps-Déplacer/Copier1[1]', #46 ) ;
#211 = EDGE_CURVE ( 'NONE', #10, #10, #52, .T. ) ;
#212 = ORIENTED_EDGE ( 'NONE', *, *, #197, .F. ) ;
#213 = CARTESIAN_POINT ( 'NONE',  ( 0.0000000000000000000, 0.0000000000000000000, 0.0000000000000000000 ) ) ;
#214 = DIRECTION ( 'NONE',  ( 4.275831445896958607E-31, 1.000000000000000000, 1.224646799147353207E-16 ) ) ;
#215 = EDGE_LOOP ( 'NONE', ( #257 ) ) ;
#216 = CIRCLE ( 'NONE', #13, 0.6300000000000001155 ) ;
#217 = SECURITY_CLASSIFICATION ( '', '', #53 ) ;
#218 = PRODUCT ( '963588', '963588', '', ( #272 ) ) ;
#219 = EDGE_LOOP ( 'NONE', ( #212 ) ) ;
#220 = CARTESIAN_POINT ( 'NONE',  ( 0.0000000000000000000, 0.0000000000000000000, 0.0000000000000000000 ) ) ;
#221 = EDGE_CURVE ( 'NONE', #293, #293, #216, .T. ) ;
#222 = ORIENTED_EDGE ( 'NONE', *, *, #82, .F. ) ;
#223 = CARTESIAN_POINT ( 'NONE',  ( 6.520732687838371458E-14, 1.499999999999995559, 18.67612069208122705 ) ) ;
#224 = PERSON_AND_ORGANIZATION_ROLE ( 'design_owner' ) ;
#225 = CC_DESIGN_PERSON_AND_ORGANIZATION_ASSIGNMENT ( #48, #137, ( #244 ) ) ;
#226 = DIRECTION ( 'NONE',  ( 4.275831445896958607E-31, 1.000000000000000000, 1.224646799147352961E-16 ) ) ;
#227 = CARTESIAN_POINT ( 'NONE',  ( 0.0000000000000000000, 0.0000000000000000000, 0.0000000000000000000 ) ) ;
#228 = DIRECTION ( 'NONE',  ( 4.275831445896958607E-31, 1.000000000000000000, 1.224646799147353207E-16 ) ) ;
#229 = PERSON_AND_ORGANIZATION_ROLE ( 'creator' ) ;
#230 = DIRECTION ( 'NONE',  ( 0.0000000000000000000, 1.000000000000000000, 0.0000000000000000000 ) ) ;
#231 = CC_DESIGN_PERSON_AND_ORGANIZATION_ASSIGNMENT ( #277, #18, ( #217 ) ) ;
#232 = COORDINATED_UNIVERSAL_TIME_OFFSET ( 1, 0, .AHEAD. ) ;
#233 = DIRECTION ( 'NONE',  ( -3.491481338843133355E-15, 1.224646799147353207E-16, -1.000000000000000000 ) ) ;
#234 = EDGE_LOOP ( 'NONE', ( #200 ) ) ;
#235 = CIRCLE ( 'NONE', #171, 1.200000000000003286 ) ;
#236 = CARTESIAN_POINT ( 'NONE',  ( 2.155363034031430415E-14, -7.559995842629104915E-16, 6.173205080756892116 ) ) ;
#237 = DATE_AND_TIME ( #68, #88 ) ;
#238 = ORIENTED_EDGE ( 'NONE', *, *, #12, .T. ) ;
#239 = DIRECTION ( 'NONE',  ( -3.491481338843133355E-15, 1.224646799147353207E-16, -1.000000000000000000 ) ) ;
#240 = DIRECTION ( 'NONE',  ( -4.275831445896958607E-31, -1.000000000000000000, -1.224646799147353207E-16 ) ) ;
#241 = ORIENTED_EDGE ( 'NONE', *, *, #221, .T. ) ;
#242 = CARTESIAN_POINT ( 'NONE',  ( 4.660183614865709118E-14, 0.5603844939755802113, 13.34729635533384595 ) ) ;
#243 = CC_DESIGN_PERSON_AND_ORGANIZATION_ASSIGNMENT ( #186, #229, ( #244 ) ) ;
#244 = PRODUCT_DEFINITION_FORMATION_WITH_SPECIFIED_SOURCE ( 'ANY', '', #218, .NOT_KNOWN. ) ;
#245 = EDGE_LOOP ( 'NONE', ( #92 ) ) ;
#246 = FACE_OUTER_BOUND ( 'NONE', #60, .T. ) ;
#247 = ADVANCED_FACE ( 'NONE', ( #119, #141 ), #194, .T. ) ;
#248 = FACE_OUTER_BOUND ( 'NONE', #180, .T. ) ;
#249 = CONICAL_SURFACE ( 'NONE', #17, 0.5299999999999992495, 0.5235987755982929315 ) ;
#250 = DIRECTION ( 'NONE',  ( -4.275831445896958607E-31, -1.000000000000000000, -1.224646799147353207E-16 ) ) ;
#251 = PERSON_AND_ORGANIZATION ( #205, #303 ) ;
#252 = PERSON_AND_ORGANIZATION ( #205, #303 ) ;
#253 = DIRECTION ( 'NONE',  ( -3.491481338843133355E-15, 1.224646799147353207E-16, -1.000000000000000000 ) ) ;
#254 = CARTESIAN_POINT ( 'NONE',  ( 8.728703347107831416E-16, -3.061616997868382402E-17, 0.2499999999999999445 ) ) ;
#255 = PERSON_AND_ORGANIZATION ( #205, #303 ) ;
#256 = ADVANCED_FACE ( 'NONE', ( #80, #189 ), #262, .T. ) ;
#257 = ORIENTED_EDGE ( 'NONE', *, *, #170, .T. ) ;
#258 = APPROVAL_ROLE ( '' ) ;
#259 = CLOSED_SHELL ( 'NONE', ( #7, #188, #256, #85 ) ) ;
#260 = DIRECTION ( 'NONE',  ( 0.0000000000000000000, 1.000000000000000000, 0.0000000000000000000 ) ) ;
#261 = CARTESIAN_POINT ( 'NONE',  ( 6.520732687838371458E-14, -2.287165142604692625E-15, 18.67612069208122705 ) ) ;
#262 = CYLINDRICAL_SURFACE ( 'NONE', #58, 0.6299999999999996714 ) ;
#263 = DIRECTION ( 'NONE',  ( -3.491481338843133355E-15, 1.224646799147353207E-16, -1.000000000000000000 ) ) ;
#264 = AXIS2_PLACEMENT_3D ( 'NONE', #220, #274, #226 ) ;
#265 = CARTESIAN_POINT ( 'NONE',  ( 4.538925740496072731E-14, -1.592040838891558898E-15, 12.99999999999999822 ) ) ;
#266 = ADVANCED_FACE ( 'NONE', ( #208 ), #2, .F. ) ;
#267 = CARTESIAN_POINT ( 'NONE',  ( 1.326762908760390423E-13, 1.199999999999998845, 38.00000000000000000 ) ) ;
#268 = EDGE_LOOP ( 'NONE', ( #56 ) ) ;
#269 = AXIS2_PLACEMENT_3D ( 'NONE', #51, #253, #138 ) ;
#270 = CARTESIAN_POINT ( 'NONE',  ( 8.728703347107833388E-16, 0.6299999999999993383, 0.2500000000000000000 ) ) ;
#271 = ADVANCED_FACE ( 'NONE', ( #142 ), #55, .F. ) ;
#272 = MECHANICAL_CONTEXT ( 'NONE', #115, 'mechanical' ) ;
#273 = VERTEX_POINT ( 'NONE', #267 ) ;
#274 = DIRECTION ( 'NONE',  ( -3.491481338843133355E-15, 1.224646799147353207E-16, -1.000000000000000000 ) ) ;
#275 = ORIENTED_EDGE ( 'NONE', *, *, #197, .T. ) ;
#276 = DIRECTION ( 'NONE',  ( 0.0000000000000000000, 1.000000000000000000, 0.0000000000000000000 ) ) ;
#277 = PERSON_AND_ORGANIZATION ( #205, #303 ) ;
#278 = FACE_BOUND ( 'NONE', #79, .T. ) ;
#279 = CIRCLE ( 'NONE', #178, 0.4856624327025949595 ) ;
#280 = EDGE_LOOP ( 'NONE', ( #222 ) ) ;
#281 = ADVANCED_BREP_SHAPE_REPRESENTATION ( '963588', ( #210, #108, #97 ), #288 ) ;
#282 = CC_DESIGN_PERSON_AND_ORGANIZATION_ASSIGNMENT ( #127, #224, ( #218 ) ) ;
#283 = APPROVAL_DATE_TIME ( #237, #42 ) ;
#284 = AXIS2_PLACEMENT_3D ( 'NONE', #300, #155, #250 ) ;
#285 = ORIENTED_EDGE ( 'NONE', *, *, #12, .F. ) ;
#286 = ADVANCED_FACE ( 'NONE', ( #59, #32 ), #199, .T. ) ;
#287 = EDGE_LOOP ( 'NONE', ( #285 ) ) ;
#288 =( GEOMETRIC_REPRESENTATION_CONTEXT ( 3 ) GLOBAL_UNCERTAINTY_ASSIGNED_CONTEXT ( ( #192 ) ) GLOBAL_UNIT_ASSIGNED_CONTEXT ( ( #177, #39, #176 ) ) REPRESENTATION_CONTEXT ( 'NONE', 'WORKASPACE' ) );
#289 = DIRECTION ( 'NONE',  ( -3.491481338843133355E-15, 1.224646799147353207E-16, -1.000000000000000000 ) ) ;
#290 = LOCAL_TIME ( 11, 40, 29.00000000000000000, #94 ) ;
#291 = APPLICATION_CONTEXT ( 'configuration controlled 3d designs of mechanical parts and assemblies' ) ;
#292 = ADVANCED_FACE ( 'NONE', ( #246, #248 ), #195, .T. ) ;
#293 = VERTEX_POINT ( 'NONE', #84 ) ;
#294 = CARTESIAN_POINT ( 'NONE',  ( 2.155363034031430415E-14, 0.5299999999999984723, 6.173205080756892116 ) ) ;
#295 = PLANE ( 'NONE',  #25 ) ;
#296 = AXIS2_PLACEMENT_3D ( 'NONE', #261, #169, #27 ) ;
#297 = APPROVAL_PERSON_ORGANIZATION ( #252, #42, #90 ) ;
#298 = FACE_OUTER_BOUND ( 'NONE', #37, .T. ) ;
#299 = DATE_TIME_ROLE ( 'creation_date' ) ;
#300 = CARTESIAN_POINT ( 'NONE',  ( -1.511489307516075712E-31, 5.301590822789088074E-33, -4.329077433983629020E-17 ) ) ;
#301 = DIRECTION ( 'NONE',  ( 3.491481338843133355E-15, -1.224646799147353207E-16, 1.000000000000000000 ) ) ;
#302 = DATE_AND_TIME ( #1, #64 ) ;
#303 = ORGANIZATION ( 'UNSPECIFIED', 'UNSPECIFIED', '' ) ;
ENDSEC;
END-ISO-10303-21;
