ISO-10303-21;
HEADER;
FILE_DESCRIPTION (( 'STEP AP203' ),
    '1' );
FILE_NAME ('963531.step',
    '2021-09-03T07:55:59',
    ( '' ),
    ( '' ),
    'SwSTEP 2.0',
    'SolidWorks 2019',
    '' );
FILE_SCHEMA (( 'CONFIG_CONTROL_DESIGN' ));
ENDSEC;

DATA;
#1 = AXIS2_PLACEMENT_3D ( 'NONE', #329, #166, #250 ) ;
#2 = AXIS2_PLACEMENT_3D ( 'NONE', #164, #278, #36 ) ;
#3 = CC_DESIGN_PERSON_AND_ORGANIZATION_ASSIGNMENT ( #326, #298, ( #283 ) ) ;
#4 = PERSON_AND_ORGANIZATION_ROLE ( 'creator' ) ;
#5 = DIRECTION ( 'NONE',  ( -3.491481338843133355E-15, 1.224646799147353207E-16, -1.000000000000000000 ) ) ;
#6 = FACE_OUTER_BOUND ( 'NONE', #310, .T. ) ;
#7 = CALENDAR_DATE ( 2021, 3, 9 ) ;
#8 = DIRECTION ( 'NONE',  ( -3.491481338843133355E-15, 1.224646799147353207E-16, -1.000000000000000000 ) ) ;
#9 = ORIENTED_EDGE ( 'NONE', *, *, #137, .T. ) ;
#10 = PERSON_AND_ORGANIZATION ( #179, #23 ) ;
#11 = DIRECTION ( 'NONE',  ( -4.275831445896958607E-31, -1.000000000000000000, -1.224646799147353207E-16 ) ) ;
#12 = ORIENTED_EDGE ( 'NONE', *, *, #137, .F. ) ;
#13 = CARTESIAN_POINT ( 'NONE',  ( 1.082359215041371340E-13, 3.674411467521546213E-32, 31.00000000000000000 ) ) ;
#14 = CARTESIAN_POINT ( 'NONE',  ( 3.107418391570388560E-13, 2.924531576190611935E-32, 89.00000000000000000 ) ) ;
#15 = DIRECTION ( 'NONE',  ( -3.491481338843133355E-15, 1.224646799147353207E-16, -1.000000000000000000 ) ) ;
#16 = CARTESIAN_POINT ( 'NONE',  ( 1.027967882904436053E-14, -4.899999999999996803, 2.944217033235076109 ) ) ;
#17 = ORIENTED_EDGE ( 'NONE', *, *, #211, .T. ) ;
#18 = EDGE_LOOP ( 'NONE', ( #191, #85, #17 ) ) ;
#19 = AXIS2_PLACEMENT_3D ( 'NONE', #196, #162, #34 ) ;
#20 = CARTESIAN_POINT ( 'NONE',  ( 5.985787709817292599E-14, -4.900000000000003908, 31.00000000000000000 ) ) ;
#21 = DIRECTION ( 'NONE',  ( -3.491481338843133355E-15, 1.224646799147353207E-16, -1.000000000000000000 ) ) ;
#22 = EDGE_CURVE ( 'NONE', #300, #96, #253, .T. ) ;
#23 = ORGANIZATION ( 'UNSPECIFIED', 'UNSPECIFIED', '' ) ;
#24 = ORIENTED_EDGE ( 'NONE', *, *, #45, .T. ) ;
#25 = APPROVAL_ROLE ( '' ) ;
#26 = CARTESIAN_POINT ( 'NONE',  ( 3.072503578181957353E-13, -1.077689183249670724E-14, 88.00000000000000000 ) ) ;
#27 = ORIENTED_EDGE ( 'NONE', *, *, #286, .F. ) ;
#28 =( NAMED_UNIT ( * ) SI_UNIT ( $, .STERADIAN. ) SOLID_ANGLE_UNIT ( ) );
#29 = LINE ( 'NONE', #57, #309 ) ;
#30 = PERSON_AND_ORGANIZATION ( #179, #23 ) ;
#31 = DIRECTION ( 'NONE',  ( -3.491481338843133355E-15, 1.224646799147353207E-16, -1.000000000000000000 ) ) ;
#32 = ORIENTED_EDGE ( 'NONE', *, *, #286, .T. ) ;
#33 = DIRECTION ( 'NONE',  ( 0.0000000000000000000, 0.0000000000000000000, 1.000000000000000000 ) ) ;
#34 = DIRECTION ( 'NONE',  ( 0.0000000000000000000, 1.000000000000000000, 0.0000000000000000000 ) ) ;
#35 = APPROVAL_STATUS ( 'not_yet_approved' ) ;
#36 = DIRECTION ( 'NONE',  ( 0.0000000000000000000, 1.000000000000000000, 0.0000000000000000000 ) ) ;
#37 = VERTEX_POINT ( 'NONE', #123 ) ;
#38 = CARTESIAN_POINT ( 'NONE',  ( 1.082359215041371340E-13, -3.796405077356795115E-15, 31.00000000000000000 ) ) ;
#39 = CARTESIAN_POINT ( 'NONE',  ( 0.0000000000000000000, 0.0000000000000000000, 0.0000000000000000000 ) ) ;
#40 = EDGE_LOOP ( 'NONE', ( #225, #81 ) ) ;
#41 = FACE_OUTER_BOUND ( 'NONE', #77, .T. ) ;
#42 = ORIENTED_EDGE ( 'NONE', *, *, #180, .F. ) ;
#43 = DIRECTION ( 'NONE',  ( -3.491481338843133355E-15, 1.224646799147353207E-16, -1.000000000000000000 ) ) ;
#44 = CONICAL_SURFACE ( 'NONE', #232, 3.900000000000007905, 0.7853981633974476129 ) ;
#45 = EDGE_CURVE ( 'NONE', #53, #37, #154, .T. ) ;
#46 = CIRCLE ( 'NONE', #139, 4.900000000000000355 ) ;
#47 = CIRCLE ( 'NONE', #254, 4.900000000000000355 ) ;
#48 = LOCAL_TIME ( 9, 55, 59.00000000000000000, #328 ) ;
#49 = APPROVAL_DATE_TIME ( #243, #152 ) ;
#50 = DIRECTION ( 'NONE',  ( -3.144375419407733909E-31, -1.000000000000000000, -8.850629979473510942E-17 ) ) ;
#51 = CARTESIAN_POINT ( 'NONE',  ( 1.082359215041371340E-13, -3.796405077356795115E-15, 31.00000000000000000 ) ) ;
#52 = APPLICATION_CONTEXT ( 'configuration controlled 3d designs of mechanical parts and assemblies' ) ;
#53 = VERTEX_POINT ( 'NONE', #62 ) ;
#54 = PERSON_AND_ORGANIZATION_ROLE ( 'creator' ) ;
#55 = CARTESIAN_POINT ( 'NONE',  ( 3.107418391570388560E-13, 3.899999999999997247, 89.00000000000000000 ) ) ;
#56 = APPLICATION_PROTOCOL_DEFINITION ( 'international standard', 'config_control_design', 1994, #207 ) ;
#57 = CARTESIAN_POINT ( 'NONE',  ( 3.112194514087063508E-13, -3.900000000000019007, 89.00000000000000000 ) ) ;
#58 = CC_DESIGN_APPROVAL ( #289, ( #112 ) ) ;
#59 = ADVANCED_FACE ( 'NONE', ( #230 ), #231, .T. ) ;
#60 = DIRECTION ( 'NONE',  ( -3.491481338843133355E-15, 1.224646799147353207E-16, -1.000000000000000000 ) ) ;
#61 = VERTEX_POINT ( 'NONE', #281 ) ;
#62 = CARTESIAN_POINT ( 'NONE',  ( 0.0000000000000000000, 0.0000000000000000000, 0.0000000000000000000 ) ) ;
#63 = DIRECTION ( 'NONE',  ( -3.491481338843133355E-15, 1.224646799147353207E-16, -1.000000000000000000 ) ) ;
#64 = VECTOR ( 'NONE', #261, 1000.000000000000000 ) ;
#65 = ORIENTED_EDGE ( 'NONE', *, *, #101, .T. ) ;
#66 = EDGE_CURVE ( 'NONE', #197, #96, #47, .T. ) ;
#67 = PRODUCT_DEFINITION_SHAPE ( 'NONE', 'NONE',  #112 ) ;
#68 = ORIENTED_EDGE ( 'NONE', *, *, #125, .T. ) ;
#69 = CLOSED_SHELL ( 'NONE', ( #287, #95, #172, #209, #208 ) ) ;
#70 = SECURITY_CLASSIFICATION ( '', '', #161 ) ;
#71 = ADVANCED_FACE ( 'NONE', ( #92 ), #151, .F. ) ;
#72 = EDGE_CURVE ( 'NONE', #242, #183, #124, .T. ) ;
#73 = CARTESIAN_POINT ( 'NONE',  ( 1.027967882904436211E-14, -3.605625965746452645E-16, 2.944217033235076553 ) ) ;
#74 = CIRCLE ( 'NONE', #174, 4.900000000000000355 ) ;
#75 = EDGE_CURVE ( 'NONE', #242, #145, #157, .T. ) ;
#76 = PERSON_AND_ORGANIZATION ( #179, #23 ) ;
#77 = EDGE_LOOP ( 'NONE', ( #138, #9, #42, #273 ) ) ;
#78 = AXIS2_PLACEMENT_3D ( 'NONE', #13, #119, #11 ) ;
#79 = PERSON_AND_ORGANIZATION ( #179, #23 ) ;
#80 = CARTESIAN_POINT ( 'NONE',  ( 1.027967882904436211E-14, -3.605625965746452645E-16, 2.944217033235076553 ) ) ;
#81 = ORIENTED_EDGE ( 'NONE', *, *, #141, .F. ) ;
#82 = DATE_TIME_ROLE ( 'creation_date' ) ;
#83 = CARTESIAN_POINT ( 'NONE',  ( 6.000769315822009046E-16, -4.899999999999998579, -6.000769315822049475E-16 ) ) ;
#84 = EDGE_CURVE ( 'NONE', #183, #197, #195, .T. ) ;
#85 = ORIENTED_EDGE ( 'NONE', *, *, #316, .T. ) ;
#86 = APPROVAL_ROLE ( '' ) ;
#87 = FACE_OUTER_BOUND ( 'NONE', #88, .T. ) ;
#88 = EDGE_LOOP ( 'NONE', ( #216, #318 ) ) ;
#89 = CALENDAR_DATE ( 2021, 3, 9 ) ;
#90 = DIRECTION ( 'NONE',  ( -3.144375419407733909E-31, -1.000000000000000000, -8.850629979473510942E-17 ) ) ;
#91 = AXIS2_PLACEMENT_3D ( 'NONE', #317, #33, #240 ) ;
#92 = FACE_OUTER_BOUND ( 'NONE', #40, .T. ) ;
#93 = DIRECTION ( 'NONE',  ( 0.0000000000000000000, 1.000000000000000000, 0.0000000000000000000 ) ) ;
#94 = ORIENTED_EDGE ( 'NONE', *, *, #84, .T. ) ;
#95 = ADVANCED_FACE ( 'NONE', ( #279 ), #260, .T. ) ;
#96 = VERTEX_POINT ( 'NONE', #144 ) ;
#97 = AXIS2_PLACEMENT_3D ( 'NONE', #26, #170, #147 ) ;
#98 = DIRECTION ( 'NONE',  ( -3.491481338843133355E-15, 1.224646799147353207E-16, -1.000000000000000000 ) ) ;
#99 = DIRECTION ( 'NONE',  ( 0.0000000000000000000, 1.000000000000000000, 0.0000000000000000000 ) ) ;
#100 = DIRECTION ( 'NONE',  ( 4.275831445896958607E-31, 1.000000000000000000, 1.224646799147353207E-16 ) ) ;
#101 = EDGE_CURVE ( 'NONE', #300, #183, #108, .T. ) ;
#102 = CC_DESIGN_SECURITY_CLASSIFICATION ( #70, ( #262 ) ) ;
#103 = APPROVAL ( #220, 'UNSPECIFIED' ) ;
#104 = SHAPE_DEFINITION_REPRESENTATION ( #67, #212 ) ;
#105 = CARTESIAN_POINT ( 'NONE',  ( 2.095157408489508999E-30, 4.899999999999998579, 6.000769315822029754E-16 ) ) ;
#106 = ORIENTED_EDGE ( 'NONE', *, *, #72, .T. ) ;
#107 = AXIS2_PLACEMENT_3D ( 'NONE', #14, #259, #100 ) ;
#108 = CIRCLE ( 'NONE', #2, 4.900000000000007461 ) ;
#109 = PLANE ( 'NONE',  #78 ) ;
#110 = DATE_TIME_ROLE ( 'classification_date' ) ;
#111 = DIRECTION ( 'NONE',  ( 3.144375419407733909E-31, 1.000000000000000000, 8.850629979473510942E-17 ) ) ;
#112 = PRODUCT_DEFINITION ( 'UNKNOWN', '', #262, #314 ) ;
#113 = ORIENTED_EDGE ( 'NONE', *, *, #200, .T. ) ;
#114 = MECHANICAL_CONTEXT ( 'NONE', #207, 'mechanical' ) ;
#115 = CARTESIAN_POINT ( 'NONE',  ( 3.107418391570388560E-13, -1.089935651241144239E-14, 89.00000000000000000 ) ) ;
#116 = EDGE_LOOP ( 'NONE', ( #293, #295, #113, #121 ) ) ;
#117 = VECTOR ( 'NONE', #198, 999.9999999999998863 ) ;
#118 = LOCAL_TIME ( 9, 55, 59.00000000000000000, #322 ) ;
#119 = DIRECTION ( 'NONE',  ( 3.491481338843133355E-15, -1.224646799147353207E-16, 1.000000000000000000 ) ) ;
#120 = LOCAL_TIME ( 9, 55, 59.00000000000000000, #275 ) ;
#121 = ORIENTED_EDGE ( 'NONE', *, *, #211, .F. ) ;
#122 = CARTESIAN_POINT ( 'NONE',  ( 3.107418391570388560E-13, -1.089935651241144239E-14, 89.00000000000000000 ) ) ;
#123 = CARTESIAN_POINT ( 'NONE',  ( 1.087975576062656686E-14, 4.899999999999996803, 2.944217033235076997 ) ) ;
#124 = LINE ( 'NONE', #233, #308 ) ;
#125 = EDGE_CURVE ( 'NONE', #169, #321, #46, .T. ) ;
#126 = CIRCLE ( 'NONE', #265, 4.899999999999996803 ) ;
#127 = ADVANCED_FACE ( 'NONE', ( #299 ), #282, .T. ) ;
#128 =( LENGTH_UNIT ( ) NAMED_UNIT ( * ) SI_UNIT ( .MILLI., .METRE. ) );
#129 = CC_DESIGN_APPROVAL ( #152, ( #262 ) ) ;
#130 = EDGE_LOOP ( 'NONE', ( #266, #24, #306 ) ) ;
#131 = MANIFOLD_SOLID_BREP ( 'Corps-Déplacer/Copier1[2]', #69 ) ;
#132 =( NAMED_UNIT ( * ) PLANE_ANGLE_UNIT ( ) SI_UNIT ( $, .RADIAN. ) );
#133 = CARTESIAN_POINT ( 'NONE',  ( 3.072503578181957353E-13, 4.899999999999996803, 88.00000000000000000 ) ) ;
#134 = ORIENTED_EDGE ( 'NONE', *, *, #66, .T. ) ;
#135 = APPROVAL_DATE_TIME ( #167, #289 ) ;
#136 = FACE_OUTER_BOUND ( 'NONE', #18, .T. ) ;
#137 = EDGE_CURVE ( 'NONE', #145, #300, #29, .T. ) ;
#138 = ORIENTED_EDGE ( 'NONE', *, *, #75, .T. ) ;
#139 = AXIS2_PLACEMENT_3D ( 'NONE', #51, #31, #93 ) ;
#140 = CALENDAR_DATE ( 2021, 3, 9 ) ;
#141 = EDGE_CURVE ( 'NONE', #145, #242, #192, .T. ) ;
#142 = CARTESIAN_POINT ( 'NONE',  ( 1.082359215041371340E-13, 4.899999999999996803, 31.00000000000000000 ) ) ;
#143 = CALENDAR_DATE ( 2021, 3, 9 ) ;
#144 = CARTESIAN_POINT ( 'NONE',  ( 2.083432165927485952E-13, -4.900000000000003908, 31.00000000000000000 ) ) ;
#145 = VERTEX_POINT ( 'NONE', #228 ) ;
#146 = APPROVAL_ROLE ( '' ) ;
#147 = DIRECTION ( 'NONE',  ( 0.0000000000000000000, 1.000000000000000000, 0.0000000000000000000 ) ) ;
#148 = ORIENTED_EDGE ( 'NONE', *, *, #323, .F. ) ;
#149 = AXIS2_PLACEMENT_3D ( 'NONE', #303, #214, #90 ) ;
#150 = CARTESIAN_POINT ( 'NONE',  ( 2.083432165927484942E-13, -4.900000000000018119, 88.00000000000000000 ) ) ;
#151 = PLANE ( 'NONE',  #107 ) ;
#152 = APPROVAL ( #296, 'UNSPECIFIED' ) ;
#153 = EDGE_LOOP ( 'NONE', ( #331, #325, #222, #284 ) ) ;
#154 = LINE ( 'NONE', #307, #117 ) ;
#155 = CARTESIAN_POINT ( 'NONE',  ( 1.082359215041371340E-13, -3.796405077356795115E-15, 31.00000000000000000 ) ) ;
#156 = UNCERTAINTY_MEASURE_WITH_UNIT (LENGTH_MEASURE( 1.000000000000000082E-05 ), #128, 'distance_accuracy_value', 'NONE');
#157 = CIRCLE ( 'NONE', #199, 3.900000000000007905 ) ;
#158 = AXIS2_PLACEMENT_3D ( 'NONE', #39, #305, #280 ) ;
#159 = PRODUCT_RELATED_PRODUCT_CATEGORY ( 'detail', '', ( #283 ) ) ;
#160 = AXIS2_PLACEMENT_3D ( 'NONE', #190, #252, #50 ) ;
#161 = SECURITY_CLASSIFICATION_LEVEL ( 'unclassified' ) ;
#162 = DIRECTION ( 'NONE',  ( -3.491481338843133355E-15, 1.224646799147353207E-16, -1.000000000000000000 ) ) ;
#163 = COORDINATED_UNIVERSAL_TIME_OFFSET ( 1, 0, .AHEAD. ) ;
#164 = CARTESIAN_POINT ( 'NONE',  ( 3.072503578181957353E-13, -1.077689183249670724E-14, 88.00000000000000000 ) ) ;
#165 = DATE_AND_TIME ( #7, #118 ) ;
#166 = DIRECTION ( 'NONE',  ( 3.491481338843133355E-15, -1.224646799147353207E-16, 1.000000000000000000 ) ) ;
#167 = DATE_AND_TIME ( #270, #210 ) ;
#168 = PLANE ( 'NONE',  #1 ) ;
#169 = VERTEX_POINT ( 'NONE', #268 ) ;
#170 = DIRECTION ( 'NONE',  ( -3.491481338843133355E-15, 1.224646799147353207E-16, -1.000000000000000000 ) ) ;
#171 = DIRECTION ( 'NONE',  ( -3.491481338843133355E-15, 1.224646799147353207E-16, -1.000000000000000000 ) ) ;
#172 = ADVANCED_FACE ( 'NONE', ( #136 ), #206, .T. ) ;
#173 = DIRECTION ( 'NONE',  ( 4.275831445896958607E-31, 1.000000000000000000, 1.224646799147353207E-16 ) ) ;
#174 = AXIS2_PLACEMENT_3D ( 'NONE', #155, #63, #204 ) ;
#175 = ORIENTED_EDGE ( 'NONE', *, *, #236, .T. ) ;
#176 = EDGE_LOOP ( 'NONE', ( #238, #65, #94, #27 ) ) ;
#177 = CC_DESIGN_PERSON_AND_ORGANIZATION_ASSIGNMENT ( #223, #218, ( #262 ) ) ;
#178 = AXIS2_PLACEMENT_3D ( 'NONE', #241, #60, #188 ) ;
#179 = PERSON ( 'UNSPECIFIED', 'UNSPECIFIED', 'UNSPECIFIED', ('UNSPECIFIED'), ('UNSPECIFIED'), ('UNSPECIFIED') ) ;
#180 = EDGE_CURVE ( 'NONE', #183, #300, #246, .T. ) ;
#181 = AXIS2_PLACEMENT_3D ( 'NONE', #221, #8, #272 ) ;
#182 = ADVANCED_FACE ( 'NONE', ( #6 ), #168, .F. ) ;
#183 = VERTEX_POINT ( 'NONE', #133 ) ;
#184 = AXIS2_PLACEMENT_3D ( 'NONE', #115, #5, #271 ) ;
#185 = DIRECTION ( 'NONE',  ( -3.491481338843133355E-15, 1.224646799147353207E-16, -1.000000000000000000 ) ) ;
#186 = ADVANCED_FACE ( 'NONE', ( #276 ), #194, .T. ) ;
#187 = ORIENTED_EDGE ( 'NONE', *, *, #141, .T. ) ;
#188 = DIRECTION ( 'NONE',  ( 4.275831445896958607E-31, 1.000000000000000000, 1.224646799147353207E-16 ) ) ;
#189 = EDGE_LOOP ( 'NONE', ( #68, #175, #148, #257 ) ) ;
#190 = CARTESIAN_POINT ( 'NONE',  ( 1.027967882904436211E-14, -3.605625965746452645E-16, 2.944217033235076553 ) ) ;
#191 = ORIENTED_EDGE ( 'NONE', *, *, #45, .F. ) ;
#192 = CIRCLE ( 'NONE', #19, 3.900000000000007905 ) ;
#193 = PERSON_AND_ORGANIZATION_ROLE ( 'classification_officer' ) ;
#194 = CYLINDRICAL_SURFACE ( 'NONE', #178, 4.900000000000003908 ) ;
#195 = LINE ( 'NONE', #304, #217 ) ;
#196 = CARTESIAN_POINT ( 'NONE',  ( 3.107418391570388560E-13, -1.089935651241144239E-14, 89.00000000000000000 ) ) ;
#197 = VERTEX_POINT ( 'NONE', #142 ) ;
#198 = DIRECTION ( 'NONE',  ( 1.903218546456022717E-15, 0.8571673007021097801, 0.5150380749100585964 ) ) ;
#199 = AXIS2_PLACEMENT_3D ( 'NONE', #122, #333, #203 ) ;
#200 = EDGE_CURVE ( 'NONE', #169, #37, #248, .T. ) ;
#201 = DIRECTION ( 'NONE',  ( 0.0000000000000000000, 1.000000000000000000, 0.0000000000000000000 ) ) ;
#202 = CC_DESIGN_DATE_AND_TIME_ASSIGNMENT ( #165, #110, ( #70 ) ) ;
#203 = DIRECTION ( 'NONE',  ( 0.0000000000000000000, 1.000000000000000000, 0.0000000000000000000 ) ) ;
#204 = DIRECTION ( 'NONE',  ( 0.0000000000000000000, 1.000000000000000000, 0.0000000000000000000 ) ) ;
#205 = AXIS2_PLACEMENT_3D ( 'NONE', #334, #15, #173 ) ;
#206 = CONICAL_SURFACE ( 'NONE', #149, 4.899999999999996803, 1.029744258676649649 ) ;
#207 = APPLICATION_CONTEXT ( 'configuration controlled 3d designs of mechanical parts and assemblies' ) ;
#208 = ADVANCED_FACE ( 'NONE', ( #87 ), #109, .T. ) ;
#209 = ADVANCED_FACE ( 'NONE', ( #224 ), #330, .T. ) ;
#210 = LOCAL_TIME ( 9, 55, 59.00000000000000000, #163 ) ;
#211 = EDGE_CURVE ( 'NONE', #61, #37, #126, .T. ) ;
#212 = ADVANCED_BREP_SHAPE_REPRESENTATION ( '963531', ( #239, #131, #91 ), #301 ) ;
#213 = DATE_AND_TIME ( #143, #120 ) ;
#214 = DIRECTION ( 'NONE',  ( 3.491481338843133355E-15, -1.224646799147353207E-16, 1.000000000000000000 ) ) ;
#215 = CLOSED_SHELL ( 'NONE', ( #263, #186, #182, #59, #127, #71 ) ) ;
#216 = ORIENTED_EDGE ( 'NONE', *, *, #125, .F. ) ;
#217 = VECTOR ( 'NONE', #171, 1000.000000000000000 ) ;
#218 = PERSON_AND_ORGANIZATION_ROLE ( 'design_supplier' ) ;
#219 = DIRECTION ( 'NONE',  ( 0.0000000000000000000, 1.000000000000000000, 0.0000000000000000000 ) ) ;
#220 = APPROVAL_STATUS ( 'not_yet_approved' ) ;
#221 = CARTESIAN_POINT ( 'NONE',  ( 0.0000000000000000000, 0.0000000000000000000, 0.0000000000000000000 ) ) ;
#222 = ORIENTED_EDGE ( 'NONE', *, *, #66, .F. ) ;
#223 = PERSON_AND_ORGANIZATION ( #179, #23 ) ;
#224 = FACE_OUTER_BOUND ( 'NONE', #116, .T. ) ;
#225 = ORIENTED_EDGE ( 'NONE', *, *, #75, .F. ) ;
#226 = CC_DESIGN_DATE_AND_TIME_ASSIGNMENT ( #213, #82, ( #112 ) ) ;
#227 = APPROVAL_PERSON_ORGANIZATION ( #247, #152, #146 ) ;
#228 = CARTESIAN_POINT ( 'NONE',  ( 3.095349430792421202E-13, -3.900000000000019007, 89.00000000000000000 ) ) ;
#229 = ORIENTED_EDGE ( 'NONE', *, *, #101, .F. ) ;
#230 = FACE_OUTER_BOUND ( 'NONE', #176, .T. ) ;
#231 = CYLINDRICAL_SURFACE ( 'NONE', #205, 4.900000000000003908 ) ;
#232 = AXIS2_PLACEMENT_3D ( 'NONE', #336, #43, #99 ) ;
#233 = CARTESIAN_POINT ( 'NONE',  ( 3.107418391570388560E-13, 3.899999999999997247, 89.00000000000000000 ) ) ;
#234 = CYLINDRICAL_SURFACE ( 'NONE', #158, 4.899999999999998579 ) ;
#235 = EDGE_CURVE ( 'NONE', #321, #169, #237, .T. ) ;
#236 = EDGE_CURVE ( 'NONE', #321, #61, #324, .T. ) ;
#237 = CIRCLE ( 'NONE', #320, 4.900000000000000355 ) ;
#238 = ORIENTED_EDGE ( 'NONE', *, *, #22, .F. ) ;
#239 = MANIFOLD_SOLID_BREP ( 'Corps-Déplacer/Copier1[1]', #215 ) ;
#240 = DIRECTION ( 'NONE',  ( 1.000000000000000000, 0.0000000000000000000, 0.0000000000000000000 ) ) ;
#241 = CARTESIAN_POINT ( 'NONE',  ( 0.0000000000000000000, 0.0000000000000000000, 0.0000000000000000000 ) ) ;
#242 = VERTEX_POINT ( 'NONE', #55 ) ;
#243 = DATE_AND_TIME ( #140, #313 ) ;
#244 = DIRECTION ( 'NONE',  ( -2.382254525458718258E-15, -0.7071067811865469066, -0.7071067811865482389 ) ) ;
#245 = EDGE_LOOP ( 'NONE', ( #12, #187, #106, #229 ) ) ;
#246 = CIRCLE ( 'NONE', #97, 4.900000000000007461 ) ;
#247 = PERSON_AND_ORGANIZATION ( #179, #23 ) ;
#248 = LINE ( 'NONE', #105, #335 ) ;
#249 = COORDINATED_UNIVERSAL_TIME_OFFSET ( 1, 0, .AHEAD. ) ;
#250 = DIRECTION ( 'NONE',  ( -4.275831445896958607E-31, -1.000000000000000000, -1.224646799147353207E-16 ) ) ;
#251 = APPROVAL_DATE_TIME ( #302, #103 ) ;
#252 = DIRECTION ( 'NONE',  ( 3.491481338843133355E-15, -1.224646799147353207E-16, 1.000000000000000000 ) ) ;
#253 = LINE ( 'NONE', #258, #264 ) ;
#254 = AXIS2_PLACEMENT_3D ( 'NONE', #38, #98, #201 ) ;
#255 = CC_DESIGN_APPROVAL ( #103, ( #70 ) ) ;
#256 = LINE ( 'NONE', #16, #64 ) ;
#257 = ORIENTED_EDGE ( 'NONE', *, *, #200, .F. ) ;
#258 = CARTESIAN_POINT ( 'NONE',  ( 6.000769315822014963E-16, -4.900000000000003908, -6.000769315822056378E-16 ) ) ;
#259 = DIRECTION ( 'NONE',  ( -3.491481338843133355E-15, 1.224646799147353207E-16, -1.000000000000000000 ) ) ;
#260 = CONICAL_SURFACE ( 'NONE', #160, 4.899999999999996803, 1.029744258676649649 ) ;
#261 = DIRECTION ( 'NONE',  ( 1.798245827342160317E-15, -0.8571673007021098911, 0.5150380749100582634 ) ) ;
#262 = PRODUCT_DEFINITION_FORMATION_WITH_SPECIFIED_SOURCE ( 'ANY', '', #283, .NOT_KNOWN. ) ;
#263 = ADVANCED_FACE ( 'NONE', ( #41 ), #44, .T. ) ;
#264 = VECTOR ( 'NONE', #285, 1000.000000000000000 ) ;
#265 = AXIS2_PLACEMENT_3D ( 'NONE', #80, #185, #111 ) ;
#266 = ORIENTED_EDGE ( 'NONE', *, *, #316, .F. ) ;
#267 = PERSON_AND_ORGANIZATION ( #179, #23 ) ;
#268 = CARTESIAN_POINT ( 'NONE',  ( 1.082359215041371340E-13, 4.899999999999996803, 31.00000000000000000 ) ) ;
#269 = CC_DESIGN_PERSON_AND_ORGANIZATION_ASSIGNMENT ( #30, #4, ( #112 ) ) ;
#270 = CALENDAR_DATE ( 2021, 3, 9 ) ;
#271 = DIRECTION ( 'NONE',  ( 0.0000000000000000000, 1.000000000000000000, 0.0000000000000000000 ) ) ;
#272 = DIRECTION ( 'NONE',  ( 4.275831445896958607E-31, 1.000000000000000000, 1.224646799147353454E-16 ) ) ;
#273 = ORIENTED_EDGE ( 'NONE', *, *, #72, .F. ) ;
#274 = CIRCLE ( 'NONE', #315, 4.899999999999996803 ) ;
#275 = COORDINATED_UNIVERSAL_TIME_OFFSET ( 1, 0, .AHEAD. ) ;
#276 = FACE_OUTER_BOUND ( 'NONE', #153, .T. ) ;
#277 = APPLICATION_PROTOCOL_DEFINITION ( 'international standard', 'config_control_design', 1994, #52 ) ;
#278 = DIRECTION ( 'NONE',  ( -3.491481338843133355E-15, 1.224646799147353207E-16, -1.000000000000000000 ) ) ;
#279 = FACE_OUTER_BOUND ( 'NONE', #130, .T. ) ;
#280 = DIRECTION ( 'NONE',  ( 4.275831445896958607E-31, 1.000000000000000000, 1.224646799147353454E-16 ) ) ;
#281 = CARTESIAN_POINT ( 'NONE',  ( 1.027967882904436053E-14, -4.899999999999996803, 2.944217033235076109 ) ) ;
#282 = CONICAL_SURFACE ( 'NONE', #184, 3.900000000000007905, 0.7853981633974476129 ) ;
#283 = PRODUCT ( '963531', '963531', '', ( #114 ) ) ;
#284 = ORIENTED_EDGE ( 'NONE', *, *, #84, .F. ) ;
#285 = DIRECTION ( 'NONE',  ( -3.491481338843133355E-15, 1.224646799147353207E-16, -1.000000000000000000 ) ) ;
#286 = EDGE_CURVE ( 'NONE', #96, #197, #74, .T. ) ;
#287 = ADVANCED_FACE ( 'NONE', ( #311 ), #234, .T. ) ;
#288 = APPROVAL_PERSON_ORGANIZATION ( #79, #289, #25 ) ;
#289 = APPROVAL ( #35, 'UNSPECIFIED' ) ;
#290 = DIRECTION ( 'NONE',  ( 3.144375419407733909E-31, 1.000000000000000000, 8.850629979473510942E-17 ) ) ;
#291 = VECTOR ( 'NONE', #327, 1000.000000000000000 ) ;
#292 = CC_DESIGN_PERSON_AND_ORGANIZATION_ASSIGNMENT ( #10, #54, ( #262 ) ) ;
#293 = ORIENTED_EDGE ( 'NONE', *, *, #236, .F. ) ;
#294 = DIRECTION ( 'NONE',  ( -3.491481338843133355E-15, 1.224646799147353207E-16, -1.000000000000000000 ) ) ;
#295 = ORIENTED_EDGE ( 'NONE', *, *, #235, .T. ) ;
#296 = APPROVAL_STATUS ( 'not_yet_approved' ) ;
#297 = CARTESIAN_POINT ( 'NONE',  ( 1.082359215041371340E-13, -3.796405077356795115E-15, 31.00000000000000000 ) ) ;
#298 = PERSON_AND_ORGANIZATION_ROLE ( 'design_owner' ) ;
#299 = FACE_OUTER_BOUND ( 'NONE', #245, .T. ) ;
#300 = VERTEX_POINT ( 'NONE', #150 ) ;
#301 =( GEOMETRIC_REPRESENTATION_CONTEXT ( 3 ) GLOBAL_UNCERTAINTY_ASSIGNED_CONTEXT ( ( #156 ) ) GLOBAL_UNIT_ASSIGNED_CONTEXT ( ( #128, #132, #28 ) ) REPRESENTATION_CONTEXT ( 'NONE', 'WORKASPACE' ) );
#302 = DATE_AND_TIME ( #89, #48 ) ;
#303 = CARTESIAN_POINT ( 'NONE',  ( 1.027967882904436211E-14, -3.605625965746452645E-16, 2.944217033235076553 ) ) ;
#304 = CARTESIAN_POINT ( 'NONE',  ( 2.095157408489511451E-30, 4.900000000000003908, 6.000769315822035670E-16 ) ) ;
#305 = DIRECTION ( 'NONE',  ( -3.491481338843133355E-15, 1.224646799147353207E-16, -1.000000000000000000 ) ) ;
#306 = ORIENTED_EDGE ( 'NONE', *, *, #323, .T. ) ;
#307 = CARTESIAN_POINT ( 'NONE',  ( 1.087975576062656686E-14, 4.899999999999996803, 2.944217033235076997 ) ) ;
#308 = VECTOR ( 'NONE', #337, 1000.000000000000000 ) ;
#309 = VECTOR ( 'NONE', #244, 999.9999999999998863 ) ;
#310 = EDGE_LOOP ( 'NONE', ( #134, #32 ) ) ;
#311 = FACE_OUTER_BOUND ( 'NONE', #189, .T. ) ;
#312 = APPROVAL_PERSON_ORGANIZATION ( #267, #103, #86 ) ;
#313 = LOCAL_TIME ( 9, 55, 59.00000000000000000, #249 ) ;
#314 = DESIGN_CONTEXT ( 'detailed design', #52, 'design' ) ;
#315 = AXIS2_PLACEMENT_3D ( 'NONE', #73, #21, #290 ) ;
#316 = EDGE_CURVE ( 'NONE', #53, #61, #256, .T. ) ;
#317 = CARTESIAN_POINT ( 'NONE',  ( 0.0000000000000000000, 0.0000000000000000000, 0.0000000000000000000 ) ) ;
#318 = ORIENTED_EDGE ( 'NONE', *, *, #235, .F. ) ;
#319 = DIRECTION ( 'NONE',  ( -3.491481338843133355E-15, 1.224646799147353207E-16, -1.000000000000000000 ) ) ;
#320 = AXIS2_PLACEMENT_3D ( 'NONE', #297, #294, #219 ) ;
#321 = VERTEX_POINT ( 'NONE', #20 ) ;
#322 = COORDINATED_UNIVERSAL_TIME_OFFSET ( 1, 0, .AHEAD. ) ;
#323 = EDGE_CURVE ( 'NONE', #37, #61, #274, .T. ) ;
#324 = LINE ( 'NONE', #83, #291 ) ;
#325 = ORIENTED_EDGE ( 'NONE', *, *, #22, .T. ) ;
#326 = PERSON_AND_ORGANIZATION ( #179, #23 ) ;
#327 = DIRECTION ( 'NONE',  ( -3.491481338843133355E-15, 1.224646799147353207E-16, -1.000000000000000000 ) ) ;
#328 = COORDINATED_UNIVERSAL_TIME_OFFSET ( 1, 0, .AHEAD. ) ;
#329 = CARTESIAN_POINT ( 'NONE',  ( 1.082359215041371340E-13, 3.674411467521546213E-32, 31.00000000000000000 ) ) ;
#330 = CYLINDRICAL_SURFACE ( 'NONE', #181, 4.899999999999998579 ) ;
#331 = ORIENTED_EDGE ( 'NONE', *, *, #180, .T. ) ;
#332 = CC_DESIGN_PERSON_AND_ORGANIZATION_ASSIGNMENT ( #76, #193, ( #70 ) ) ;
#333 = DIRECTION ( 'NONE',  ( -3.491481338843133355E-15, 1.224646799147353207E-16, -1.000000000000000000 ) ) ;
#334 = CARTESIAN_POINT ( 'NONE',  ( 0.0000000000000000000, 0.0000000000000000000, 0.0000000000000000000 ) ) ;
#335 = VECTOR ( 'NONE', #319, 1000.000000000000000 ) ;
#336 = CARTESIAN_POINT ( 'NONE',  ( 3.107418391570388560E-13, -1.089935651241144239E-14, 89.00000000000000000 ) ) ;
#337 = DIRECTION ( 'NONE',  ( -2.468850131082267316E-15, 0.7071067811865471286, -0.7071067811865479058 ) ) ;
ENDSEC;
END-ISO-10303-21;
