ISO-10303-21;
HEADER;
FILE_DESCRIPTION (( 'STEP AP203' ),
    '1' );
FILE_NAME ('963188.step',
    '2021-11-29T14:49:36',
    ( '' ),
    ( '' ),
    'SwSTEP 2.0',
    'SolidWorks 2019',
    '' );
FILE_SCHEMA (( 'CONFIG_CONTROL_DESIGN' ));
ENDSEC;

DATA;
#1 = VERTEX_POINT ( 'NONE', #92 ) ;
#2 = APPROVAL_STATUS ( 'not_yet_approved' ) ;
#3 = DIRECTION ( 'NONE',  ( 3.491481338843133355E-15, -1.224646799147352961E-16, 1.000000000000000000 ) ) ;
#4 = PERSON_AND_ORGANIZATION ( #278, #115 ) ;
#5 = DIRECTION ( 'NONE',  ( 0.0000000000000000000, 1.000000000000000000, 0.0000000000000000000 ) ) ;
#6 = CIRCLE ( 'NONE', #143, 0.3580299461620758406 ) ;
#7 = DIRECTION ( 'NONE',  ( 0.0000000000000000000, -1.000000000000000000, 0.0000000000000000000 ) ) ;
#8 = APPLICATION_PROTOCOL_DEFINITION ( 'international standard', 'config_control_design', 1994, #25 ) ;
#9 = PLANE ( 'NONE',  #300 ) ;
#10 = DIRECTION ( 'NONE',  ( -3.491481338843133355E-15, 1.224646799147352961E-16, -1.000000000000000000 ) ) ;
#11 = COORDINATED_UNIVERSAL_TIME_OFFSET ( 1, 0, .AHEAD. ) ;
#12 = CARTESIAN_POINT ( 'NONE',  ( 3.491481338843133986E-14, 0.4249999999999987121, 10.00000000000000178 ) ) ;
#13 = CIRCLE ( 'NONE', #86, 1.500000000000003331 ) ;
#14 = CALENDAR_DATE ( 2021, 29, 11 ) ;
#15 = EDGE_CURVE ( 'NONE', #26, #26, #175, .T. ) ;
#16 = COORDINATED_UNIVERSAL_TIME_OFFSET ( 1, 0, .AHEAD. ) ;
#17 = AXIS2_PLACEMENT_3D ( 'NONE', #255, #141, #208 ) ;
#18 = CARTESIAN_POINT ( 'NONE',  ( 1.326762908760390423E-13, 8.998558695971099120E-33, 38.00000000000000000 ) ) ;
#19 = CARTESIAN_POINT ( 'NONE',  ( 6.982962677686266711E-16, -2.449293598294705613E-17, 0.1999999999999999833 ) ) ;
#20 = CC_DESIGN_APPROVAL ( #294, ( #247 ) ) ;
#21 = EDGE_LOOP ( 'NONE', ( #152 ) ) ;
#22 = DIRECTION ( 'NONE',  ( -3.491481338843133355E-15, 1.224646799147352961E-16, -1.000000000000000000 ) ) ;
#23 = FACE_OUTER_BOUND ( 'NONE', #295, .T. ) ;
#24 = EDGE_LOOP ( 'NONE', ( #121 ) ) ;
#25 = APPLICATION_CONTEXT ( 'configuration controlled 3d designs of mechanical parts and assemblies' ) ;
#26 = VERTEX_POINT ( 'NONE', #100 ) ;
#27 = DIRECTION ( 'NONE',  ( 0.0000000000000000000, 0.0000000000000000000, 1.000000000000000000 ) ) ;
#28 = CYLINDRICAL_SURFACE ( 'NONE', #215, 0.4734999999999996989 ) ;
#29 = CARTESIAN_POINT ( 'NONE',  ( 1.775070671323458596E-14, -6.226109793893083542E-16, 5.084004464167092507 ) ) ;
#30 = ORIENTED_EDGE ( 'NONE', *, *, #191, .F. ) ;
#31 = APPROVAL_DATE_TIME ( #219, #221 ) ;
#32 = DIRECTION ( 'NONE',  ( -3.491481338843133355E-15, 1.224646799147352961E-16, -1.000000000000000000 ) ) ;
#33 = DATE_AND_TIME ( #14, #259 ) ;
#34 = AXIS2_PLACEMENT_3D ( 'NONE', #110, #181, #253 ) ;
#35 = VERTEX_POINT ( 'NONE', #56 ) ;
#36 = CARTESIAN_POINT ( 'NONE',  ( 0.0000000000000000000, 0.0000000000000000000, 0.0000000000000000000 ) ) ;
#37 = PERSON_AND_ORGANIZATION ( #278, #115 ) ;
#38 = DATE_AND_TIME ( #63, #123 ) ;
#39 = COORDINATED_UNIVERSAL_TIME_OFFSET ( 1, 0, .AHEAD. ) ;
#40 = CIRCLE ( 'NONE', #284, 1.200000000000003286 ) ;
#41 = APPROVAL_ROLE ( '' ) ;
#42 = DIRECTION ( 'NONE',  ( 3.491481338843133355E-15, -1.224646799147352961E-16, 1.000000000000000000 ) ) ;
#43 = SECURITY_CLASSIFICATION ( '', '', #283 ) ;
#44 = ORIENTED_EDGE ( 'NONE', *, *, #264, .F. ) ;
#45 = FACE_BOUND ( 'NONE', #225, .T. ) ;
#46 = CC_DESIGN_PERSON_AND_ORGANIZATION_ASSIGNMENT ( #280, #211, ( #247 ) ) ;
#47 = CYLINDRICAL_SURFACE ( 'NONE', #252, 0.4249999999999996003 ) ;
#48 = PLANE ( 'NONE',  #72 ) ;
#49 = AXIS2_PLACEMENT_3D ( 'NONE', #243, #241, #57 ) ;
#50 = LOCAL_TIME ( 15, 49, 36.00000000000000000, #268 ) ;
#51 = EDGE_LOOP ( 'NONE', ( #160 ) ) ;
#52 = CARTESIAN_POINT ( 'NONE',  ( 5.681200619910852867E-14, -1.992696932698791743E-15, 16.27160528314110977 ) ) ;
#53 = EDGE_LOOP ( 'NONE', ( #163 ) ) ;
#54 = PRODUCT_DEFINITION ( 'UNKNOWN', '', #247, #166 ) ;
#55 = EDGE_LOOP ( 'NONE', ( #275 ) ) ;
#56 = CARTESIAN_POINT ( 'NONE',  ( 1.775070671323458596E-14, 0.4249999999999986011, 5.084004464167092507 ) ) ;
#57 = DIRECTION ( 'NONE',  ( 4.067433884661537507E-31, 1.000000000000000000, 1.144880857957239333E-16 ) ) ;
#58 = MANIFOLD_SOLID_BREP ( 'Corps-Déplacer/Copier1[2]', #187 ) ;
#59 = CARTESIAN_POINT ( 'NONE',  ( -9.463679131915806782E-32, 0.3580299461620758406, -2.710505431213761085E-17 ) ) ;
#60 = DIRECTION ( 'NONE',  ( -3.491481338843133355E-15, 1.224646799147352961E-16, -1.000000000000000000 ) ) ;
#61 = DIRECTION ( 'NONE',  ( 0.0000000000000000000, 1.000000000000000000, 0.0000000000000000000 ) ) ;
#62 = FACE_BOUND ( 'NONE', #55, .T. ) ;
#63 = CALENDAR_DATE ( 2021, 29, 11 ) ;
#64 = CC_DESIGN_SECURITY_CLASSIFICATION ( #43, ( #247 ) ) ;
#65 = ADVANCED_FACE ( 'NONE', ( #96, #236 ), #28, .T. ) ;
#66 = PERSON_AND_ORGANIZATION ( #278, #115 ) ;
#67 = CYLINDRICAL_SURFACE ( 'NONE', #34, 1.500000000000000444 ) ;
#68 = DIRECTION ( 'NONE',  ( 4.275831445896957731E-31, 1.000000000000000000, 1.224646799147352961E-16 ) ) ;
#69 = AXIS2_PLACEMENT_3D ( 'NONE', #106, #261, #265 ) ;
#70 = CIRCLE ( 'NONE', #69, 0.4553844939755813948 ) ;
#71 = EDGE_CURVE ( 'NONE', #75, #75, #137, .T. ) ;
#72 = AXIS2_PLACEMENT_3D ( 'NONE', #112, #178, #248 ) ;
#73 = PERSON_AND_ORGANIZATION_ROLE ( 'design_owner' ) ;
#74 = EDGE_LOOP ( 'NONE', ( #111 ) ) ;
#75 = VERTEX_POINT ( 'NONE', #209 ) ;
#76 = CARTESIAN_POINT ( 'NONE',  ( 3.491481338843133986E-14, -1.224646799147353256E-15, 10.00000000000000178 ) ) ;
#77 = APPLICATION_CONTEXT ( 'configuration controlled 3d designs of mechanical parts and assemblies' ) ;
#78 = CONICAL_SURFACE ( 'NONE', #198, 0.4734999999999994214, 0.5235987755982929315 ) ;
#79 = AXIS2_PLACEMENT_3D ( 'NONE', #52, #251, #273 ) ;
#80 = EDGE_CURVE ( 'NONE', #1, #1, #70, .T. ) ;
#81 = PERSON_AND_ORGANIZATION ( #278, #115 ) ;
#82 = EDGE_LOOP ( 'NONE', ( #144 ) ) ;
#83 = ORIENTED_EDGE ( 'NONE', *, *, #249, .T. ) ;
#84 = ADVANCED_BREP_SHAPE_REPRESENTATION ( '963188', ( #274, #58, #88 ), #277 ) ;
#85 = FACE_BOUND ( 'NONE', #114, .T. ) ;
#86 = AXIS2_PLACEMENT_3D ( 'NONE', #138, #180, #272 ) ;
#87 = DATE_TIME_ROLE ( 'creation_date' ) ;
#88 = AXIS2_PLACEMENT_3D ( 'NONE', #281, #27, #189 ) ;
#89 = DIRECTION ( 'NONE',  ( 4.275831445896957731E-31, 1.000000000000000000, 1.224646799147352961E-16 ) ) ;
#90 = PLANE ( 'NONE',  #188 ) ;
#91 = ORIENTED_EDGE ( 'NONE', *, *, #226, .F. ) ;
#92 = CARTESIAN_POINT ( 'NONE',  ( 3.612739213212769111E-14, 0.4553844939755801180, 10.34729635533384595 ) ) ;
#93 = AXIS2_PLACEMENT_3D ( 'NONE', #190, #116, #5 ) ;
#94 = PRODUCT_DEFINITION_SHAPE ( 'NONE', 'NONE',  #54 ) ;
#95 = FACE_OUTER_BOUND ( 'NONE', #74, .T. ) ;
#96 = FACE_OUTER_BOUND ( 'NONE', #169, .T. ) ;
#97 = VERTEX_POINT ( 'NONE', #260 ) ;
#98 = EDGE_LOOP ( 'NONE', ( #207 ) ) ;
#99 = EDGE_CURVE ( 'NONE', #97, #97, #229, .T. ) ;
#100 = CARTESIAN_POINT ( 'NONE',  ( 6.982962677686268683E-16, 0.4734999999999994214, 0.2000000000000000389 ) ) ;
#101 = CARTESIAN_POINT ( 'NONE',  ( 1.745740669421566678E-14, -6.123233995736765296E-16, 5.000000000000000000 ) ) ;
#102 = APPROVAL_STATUS ( 'not_yet_approved' ) ;
#103 = CARTESIAN_POINT ( 'NONE',  ( 3.491481338843133355E-14, -1.301042606982605321E-15, 10.00000000000000000 ) ) ;
#104 = CARTESIAN_POINT ( 'NONE',  ( 1.745740669421566678E-14, 3.550681285451936994E-33, 5.000000000000000000 ) ) ;
#105 = ADVANCED_FACE ( 'NONE', ( #195 ), #210, .F. ) ;
#106 = CARTESIAN_POINT ( 'NONE',  ( 3.612739213212769111E-14, -1.267178336138866575E-15, 10.34729635533384595 ) ) ;
#107 = COORDINATED_UNIVERSAL_TIME_OFFSET ( 1, 0, .AHEAD. ) ;
#108 = APPROVAL_DATE_TIME ( #167, #237 ) ;
#109 = EDGE_CURVE ( 'NONE', #146, #146, #182, .T. ) ;
#110 = CARTESIAN_POINT ( 'NONE',  ( 0.0000000000000000000, 0.0000000000000000000, 0.0000000000000000000 ) ) ;
#111 = ORIENTED_EDGE ( 'NONE', *, *, #177, .T. ) ;
#112 = CARTESIAN_POINT ( 'NONE',  ( -1.238621807782089504E-31, 4.344500471416080334E-33, -3.547553853438307203E-17 ) ) ;
#113 = DIRECTION ( 'NONE',  ( -4.067433884661537507E-31, -1.000000000000000000, -1.144880857957239333E-16 ) ) ;
#114 = EDGE_LOOP ( 'NONE', ( #228 ) ) ;
#115 = ORGANIZATION ( 'UNSPECIFIED', 'UNSPECIFIED', '' ) ;
#116 = DIRECTION ( 'NONE',  ( -3.491481338843133355E-15, 1.224646799147352961E-16, -1.000000000000000000 ) ) ;
#117 = MECHANICAL_CONTEXT ( 'NONE', #25, 'mechanical' ) ;
#118 = DIRECTION ( 'NONE',  ( 4.275831445896956855E-31, 1.000000000000000000, 1.224646799147352961E-16 ) ) ;
#119 = CARTESIAN_POINT ( 'NONE',  ( 1.316288464743861212E-13, 1.499999999999998668, 37.69999999999999574 ) ) ;
#120 = ORIENTED_EDGE ( 'NONE', *, *, #80, .T. ) ;
#121 = ORIENTED_EDGE ( 'NONE', *, *, #249, .F. ) ;
#122 = APPROVAL_DATE_TIME ( #33, #294 ) ;
#123 = LOCAL_TIME ( 15, 49, 36.00000000000000000, #11 ) ;
#124 = CC_DESIGN_PERSON_AND_ORGANIZATION_ASSIGNMENT ( #149, #267, ( #43 ) ) ;
#125 = DIRECTION ( 'NONE',  ( -3.491481338843133355E-15, 1.224646799147352961E-16, -1.000000000000000000 ) ) ;
#126 = APPROVAL_ROLE ( '' ) ;
#127 = PERSON_AND_ORGANIZATION_ROLE ( 'design_supplier' ) ;
#128 = PERSON_AND_ORGANIZATION_ROLE ( 'creator' ) ;
#129 = CARTESIAN_POINT ( 'NONE',  ( 5.681200619910852867E-14, -1.992696932698791743E-15, 16.27160528314110977 ) ) ;
#130 = SHAPE_DEFINITION_REPRESENTATION ( #94, #84 ) ;
#131 = CC_DESIGN_DATE_AND_TIME_ASSIGNMENT ( #38, #222, ( #43 ) ) ;
#132 = CIRCLE ( 'NONE', #183, 0.4249999999999992117 ) ;
#133 = DIRECTION ( 'NONE',  ( -3.491481338843133355E-15, 1.224646799147352961E-16, -1.000000000000000000 ) ) ;
#134 = FACE_OUTER_BOUND ( 'NONE', #186, .T. ) ;
#135 = CARTESIAN_POINT ( 'NONE',  ( 0.0000000000000000000, 0.0000000000000000000, 0.0000000000000000000 ) ) ;
#136 = EDGE_LOOP ( 'NONE', ( #44 ) ) ;
#137 = CIRCLE ( 'NONE', #276, 0.4734999999999999765 ) ;
#138 = CARTESIAN_POINT ( 'NONE',  ( 1.316288464743861212E-13, -4.616918432785520292E-15, 37.69999999999999574 ) ) ;
#139 = CARTESIAN_POINT ( 'NONE',  ( -2.477243615564179008E-31, 8.689000942832160667E-33, -7.095107706876614405E-17 ) ) ;
#140 = EDGE_LOOP ( 'NONE', ( #120 ) ) ;
#141 = DIRECTION ( 'NONE',  ( -3.491481338843133355E-15, 1.224646799147352961E-16, -1.000000000000000000 ) ) ;
#142 = VERTEX_POINT ( 'NONE', #164 ) ;
#143 = AXIS2_PLACEMENT_3D ( 'NONE', #139, #200, #157 ) ;
#144 = ORIENTED_EDGE ( 'NONE', *, *, #109, .T. ) ;
#145 = UNCERTAINTY_MEASURE_WITH_UNIT (LENGTH_MEASURE( 1.000000000000000082E-05 ), #194, 'distance_accuracy_value', 'NONE');
#146 = VERTEX_POINT ( 'NONE', #12 ) ;
#147 = VERTEX_POINT ( 'NONE', #240 ) ;
#148 = DIRECTION ( 'NONE',  ( 0.0000000000000000000, 1.000000000000000000, 0.0000000000000000000 ) ) ;
#149 = PERSON_AND_ORGANIZATION ( #278, #115 ) ;
#150 = ADVANCED_FACE ( 'NONE', ( #289, #62 ), #171, .T. ) ;
#151 = FACE_OUTER_BOUND ( 'NONE', #53, .T. ) ;
#152 = ORIENTED_EDGE ( 'NONE', *, *, #109, .F. ) ;
#153 = AXIS2_PLACEMENT_3D ( 'NONE', #282, #3, #168 ) ;
#154 = APPROVAL_STATUS ( 'not_yet_approved' ) ;
#155 = AXIS2_PLACEMENT_3D ( 'NONE', #129, #298, #7 ) ;
#156 = ADVANCED_FACE ( 'NONE', ( #151 ), #9, .T. ) ;
#157 = DIRECTION ( 'NONE',  ( 4.275831445896956855E-31, 1.000000000000000000, 1.224646799147352961E-16 ) ) ;
#158 = FACE_OUTER_BOUND ( 'NONE', #136, .T. ) ;
#159 = APPROVAL_PERSON_ORGANIZATION ( #214, #221, #41 ) ;
#160 = ORIENTED_EDGE ( 'NONE', *, *, #191, .T. ) ;
#161 = ADVANCED_FACE ( 'NONE', ( #220, #85 ), #217, .T. ) ;
#162 = FACE_OUTER_BOUND ( 'NONE', #21, .T. ) ;
#163 = ORIENTED_EDGE ( 'NONE', *, *, #71, .F. ) ;
#164 = CARTESIAN_POINT ( 'NONE',  ( 5.681200619910852867E-14, 1.499999999999995559, 16.27160528314110977 ) ) ;
#165 = ORIENTED_EDGE ( 'NONE', *, *, #177, .F. ) ;
#166 = DESIGN_CONTEXT ( 'detailed design', #77, 'design' ) ;
#167 = DATE_AND_TIME ( #235, #293 ) ;
#168 = DIRECTION ( 'NONE',  ( -4.275831445896957731E-31, -1.000000000000000000, -1.224646799147352961E-16 ) ) ;
#169 = EDGE_LOOP ( 'NONE', ( #257 ) ) ;
#170 = VERTEX_POINT ( 'NONE', #119 ) ;
#171 = CONICAL_SURFACE ( 'NONE', #197, 0.4249999999999992117, 0.5235987755982965952 ) ;
#172 = CC_DESIGN_APPROVAL ( #221, ( #43 ) ) ;
#173 = CALENDAR_DATE ( 2021, 29, 11 ) ;
#174 = ADVANCED_FACE ( 'NONE', ( #303, #185 ), #67, .T. ) ;
#175 = CIRCLE ( 'NONE', #49, 0.4734999999999994214 ) ;
#176 = CIRCLE ( 'NONE', #79, 1.499999999999997335 ) ;
#177 = EDGE_CURVE ( 'NONE', #142, #142, #176, .T. ) ;
#178 = DIRECTION ( 'NONE',  ( 3.491481338843133355E-15, -1.224646799147352961E-16, 1.000000000000000000 ) ) ;
#179 = TOROIDAL_SURFACE ( 'NONE', #203, 2.425000000000000266, 2.000000000000000000 ) ;
#180 = DIRECTION ( 'NONE',  ( -3.491481338843133355E-15, 1.224646799147352961E-16, -1.000000000000000000 ) ) ;
#181 = DIRECTION ( 'NONE',  ( -3.491481338843133355E-15, 1.224646799147352961E-16, -1.000000000000000000 ) ) ;
#182 = CIRCLE ( 'NONE', #266, 0.4249999999999999889 ) ;
#183 = AXIS2_PLACEMENT_3D ( 'NONE', #29, #263, #302 ) ;
#184 = CC_DESIGN_PERSON_AND_ORGANIZATION_ASSIGNMENT ( #4, #127, ( #247 ) ) ;
#185 = FACE_OUTER_BOUND ( 'NONE', #239, .T. ) ;
#186 = EDGE_LOOP ( 'NONE', ( #91 ) ) ;
#187 = CLOSED_SHELL ( 'NONE', ( #201, #206, #65, #156 ) ) ;
#188 = AXIS2_PLACEMENT_3D ( 'NONE', #18, #204, #89 ) ;
#189 = DIRECTION ( 'NONE',  ( 1.000000000000000000, 0.0000000000000000000, 0.0000000000000000000 ) ) ;
#190 = CARTESIAN_POINT ( 'NONE',  ( 1.745740669421566678E-14, -6.123233995736765296E-16, 5.000000000000000000 ) ) ;
#191 = EDGE_CURVE ( 'NONE', #192, #192, #6, .T. ) ;
#192 = VERTEX_POINT ( 'NONE', #59 ) ;
#193 = DIRECTION ( 'NONE',  ( 3.491481338843133355E-15, -1.224646799147352961E-16, 1.000000000000000000 ) ) ;
#194 =( LENGTH_UNIT ( ) NAMED_UNIT ( * ) SI_UNIT ( .MILLI., .METRE. ) );
#195 = FACE_OUTER_BOUND ( 'NONE', #279, .T. ) ;
#196 = PRODUCT_RELATED_PRODUCT_CATEGORY ( 'detail', '', ( #232 ) ) ;
#197 = AXIS2_PLACEMENT_3D ( 'NONE', #262, #125, #61 ) ;
#198 = AXIS2_PLACEMENT_3D ( 'NONE', #19, #42, #113 ) ;
#199 = ORIENTED_EDGE ( 'NONE', *, *, #99, .T. ) ;
#200 = DIRECTION ( 'NONE',  ( -3.491481338843133355E-15, 1.224646799147352961E-16, -1.000000000000000000 ) ) ;
#201 = ADVANCED_FACE ( 'NONE', ( #227 ), #48, .F. ) ;
#202 = CONICAL_SURFACE ( 'NONE', #155, 1.499999999999997335, 0.1745329251994260644 ) ;
#203 = AXIS2_PLACEMENT_3D ( 'NONE', #103, #212, #68 ) ;
#204 = DIRECTION ( 'NONE',  ( -3.491481338843133355E-15, 1.224646799147352961E-16, -1.000000000000000000 ) ) ;
#205 = EDGE_LOOP ( 'NONE', ( #297 ) ) ;
#206 = ADVANCED_FACE ( 'NONE', ( #45, #23 ), #78, .T. ) ;
#207 = ORIENTED_EDGE ( 'NONE', *, *, #99, .F. ) ;
#208 = DIRECTION ( 'NONE',  ( 0.0000000000000000000, 1.000000000000000000, 0.0000000000000000000 ) ) ;
#209 = CARTESIAN_POINT ( 'NONE',  ( 1.745740669421566678E-14, 0.4734999999999993658, 5.000000000000000000 ) ) ;
#210 = PLANE ( 'NONE',  #153 ) ;
#211 = PERSON_AND_ORGANIZATION_ROLE ( 'creator' ) ;
#212 = DIRECTION ( 'NONE',  ( -3.491481338843133355E-15, 1.224646799147352961E-16, -1.000000000000000000 ) ) ;
#213 = EDGE_LOOP ( 'NONE', ( #285 ) ) ;
#214 = PERSON_AND_ORGANIZATION ( #278, #115 ) ;
#215 = AXIS2_PLACEMENT_3D ( 'NONE', #36, #32, #118 ) ;
#216 = DIRECTION ( 'NONE',  ( 4.275831445896957731E-31, 1.000000000000000000, 1.224646799147352961E-16 ) ) ;
#217 = CONICAL_SURFACE ( 'NONE', #17, 1.200000000000003286, 0.7853981633974453924 ) ;
#218 = DIRECTION ( 'NONE',  ( 0.0000000000000000000, 1.000000000000000000, 0.0000000000000000000 ) ) ;
#219 = DATE_AND_TIME ( #233, #271 ) ;
#220 = FACE_OUTER_BOUND ( 'NONE', #24, .T. ) ;
#221 = APPROVAL ( #102, 'UNSPECIFIED' ) ;
#222 = DATE_TIME_ROLE ( 'classification_date' ) ;
#223 = PERSON_AND_ORGANIZATION ( #278, #115 ) ;
#224 = DIRECTION ( 'NONE',  ( 0.0000000000000000000, 1.000000000000000000, 0.0000000000000000000 ) ) ;
#225 = EDGE_LOOP ( 'NONE', ( #30 ) ) ;
#226 = EDGE_CURVE ( 'NONE', #147, #147, #40, .T. ) ;
#227 = FACE_OUTER_BOUND ( 'NONE', #51, .T. ) ;
#228 = ORIENTED_EDGE ( 'NONE', *, *, #226, .T. ) ;
#229 = CIRCLE ( 'NONE', #93, 0.4734999999999999765 ) ;
#230 = CARTESIAN_POINT ( 'NONE',  ( 1.326762908760390423E-13, -4.653657836759941152E-15, 38.00000000000000000 ) ) ;
#231 = CC_DESIGN_PERSON_AND_ORGANIZATION_ASSIGNMENT ( #223, #128, ( #54 ) ) ;
#232 = PRODUCT ( '963188', '963188', '', ( #117 ) ) ;
#233 = CALENDAR_DATE ( 2021, 29, 11 ) ;
#234 = EDGE_LOOP ( 'NONE', ( #165 ) ) ;
#235 = CALENDAR_DATE ( 2021, 29, 11 ) ;
#236 = FACE_OUTER_BOUND ( 'NONE', #205, .T. ) ;
#237 = APPROVAL ( #2, 'UNSPECIFIED' ) ;
#238 =( NAMED_UNIT ( * ) PLANE_ANGLE_UNIT ( ) SI_UNIT ( $, .RADIAN. ) );
#239 = EDGE_LOOP ( 'NONE', ( #83 ) ) ;
#240 = CARTESIAN_POINT ( 'NONE',  ( 1.326762908760390423E-13, 1.199999999999998845, 38.00000000000000000 ) ) ;
#241 = DIRECTION ( 'NONE',  ( -3.491481338843133355E-15, 1.224646799147352961E-16, -1.000000000000000000 ) ) ;
#242 = APPROVAL_PERSON_ORGANIZATION ( #37, #237, #126 ) ;
#243 = CARTESIAN_POINT ( 'NONE',  ( 6.982962677686266711E-16, -2.449293598294705613E-17, 0.1999999999999999833 ) ) ;
#244 = ADVANCED_FACE ( 'NONE', ( #134 ), #90, .F. ) ;
#245 = APPLICATION_PROTOCOL_DEFINITION ( 'international standard', 'config_control_design', 1994, #77 ) ;
#246 = APPROVAL_ROLE ( '' ) ;
#247 = PRODUCT_DEFINITION_FORMATION_WITH_SPECIFIED_SOURCE ( 'ANY', '', #232, .NOT_KNOWN. ) ;
#248 = DIRECTION ( 'NONE',  ( -4.275831445896957731E-31, -1.000000000000000000, -1.224646799147352961E-16 ) ) ;
#249 = EDGE_CURVE ( 'NONE', #170, #170, #13, .T. ) ;
#250 = FACE_OUTER_BOUND ( 'NONE', #82, .T. ) ;
#251 = DIRECTION ( 'NONE',  ( -3.491481338843133355E-15, 1.224646799147352961E-16, -1.000000000000000000 ) ) ;
#252 = AXIS2_PLACEMENT_3D ( 'NONE', #135, #22, #216 ) ;
#253 = DIRECTION ( 'NONE',  ( 4.275831445896957731E-31, 1.000000000000000000, 1.224646799147353207E-16 ) ) ;
#254 = FACE_BOUND ( 'NONE', #213, .T. ) ;
#255 = CARTESIAN_POINT ( 'NONE',  ( 1.326762908760390423E-13, -4.653657836759941152E-15, 38.00000000000000000 ) ) ;
#256 = FACE_OUTER_BOUND ( 'NONE', #140, .T. ) ;
#257 = ORIENTED_EDGE ( 'NONE', *, *, #15, .F. ) ;
#258 = ADVANCED_FACE ( 'NONE', ( #158, #250 ), #47, .T. ) ;
#259 = LOCAL_TIME ( 15, 49, 36.00000000000000000, #39 ) ;
#260 = CARTESIAN_POINT ( 'NONE',  ( 1.745740669421566678E-14, 0.4734999999999993658, 5.000000000000000000 ) ) ;
#261 = DIRECTION ( 'NONE',  ( -3.491481338843133355E-15, 1.224646799147352961E-16, -1.000000000000000000 ) ) ;
#262 = CARTESIAN_POINT ( 'NONE',  ( 1.775070671323458596E-14, -6.226109793893083542E-16, 5.084004464167092507 ) ) ;
#263 = DIRECTION ( 'NONE',  ( -3.491481338843133355E-15, 1.224646799147352961E-16, -1.000000000000000000 ) ) ;
#264 = EDGE_CURVE ( 'NONE', #35, #35, #132, .T. ) ;
#265 = DIRECTION ( 'NONE',  ( 0.0000000000000000000, 1.000000000000000000, 0.0000000000000000000 ) ) ;
#266 = AXIS2_PLACEMENT_3D ( 'NONE', #76, #60, #148 ) ;
#267 = PERSON_AND_ORGANIZATION_ROLE ( 'classification_officer' ) ;
#268 = COORDINATED_UNIVERSAL_TIME_OFFSET ( 1, 0, .AHEAD. ) ;
#269 = CLOSED_SHELL ( 'NONE', ( #105, #150, #258, #301, #286, #174, #161, #244 ) ) ;
#270 = CC_DESIGN_DATE_AND_TIME_ASSIGNMENT ( #291, #87, ( #54 ) ) ;
#271 = LOCAL_TIME ( 15, 49, 36.00000000000000000, #16 ) ;
#272 = DIRECTION ( 'NONE',  ( 0.0000000000000000000, 1.000000000000000000, 0.0000000000000000000 ) ) ;
#273 = DIRECTION ( 'NONE',  ( 0.0000000000000000000, 1.000000000000000000, 0.0000000000000000000 ) ) ;
#274 = MANIFOLD_SOLID_BREP ( 'Corps-Déplacer/Copier1[1]', #269 ) ;
#275 = ORIENTED_EDGE ( 'NONE', *, *, #264, .T. ) ;
#276 = AXIS2_PLACEMENT_3D ( 'NONE', #101, #10, #218 ) ;
#277 =( GEOMETRIC_REPRESENTATION_CONTEXT ( 3 ) GLOBAL_UNCERTAINTY_ASSIGNED_CONTEXT ( ( #145 ) ) GLOBAL_UNIT_ASSIGNED_CONTEXT ( ( #194, #238, #288 ) ) REPRESENTATION_CONTEXT ( 'NONE', 'WORKASPACE' ) );
#278 = PERSON ( 'UNSPECIFIED', 'UNSPECIFIED', 'UNSPECIFIED', ('UNSPECIFIED'), ('UNSPECIFIED'), ('UNSPECIFIED') ) ;
#279 = EDGE_LOOP ( 'NONE', ( #199 ) ) ;
#280 = PERSON_AND_ORGANIZATION ( #278, #115 ) ;
#281 = CARTESIAN_POINT ( 'NONE',  ( 0.0000000000000000000, 0.0000000000000000000, 0.0000000000000000000 ) ) ;
#282 = CARTESIAN_POINT ( 'NONE',  ( 1.745740669421566678E-14, 3.550681285451936994E-33, 5.000000000000000000 ) ) ;
#283 = SECURITY_CLASSIFICATION_LEVEL ( 'unclassified' ) ;
#284 = AXIS2_PLACEMENT_3D ( 'NONE', #230, #133, #224 ) ;
#285 = ORIENTED_EDGE ( 'NONE', *, *, #80, .F. ) ;
#286 = ADVANCED_FACE ( 'NONE', ( #254, #95 ), #202, .T. ) ;
#287 = DIRECTION ( 'NONE',  ( -4.275831445896957731E-31, -1.000000000000000000, -1.224646799147352961E-16 ) ) ;
#288 =( NAMED_UNIT ( * ) SI_UNIT ( $, .STERADIAN. ) SOLID_ANGLE_UNIT ( ) );
#289 = FACE_OUTER_BOUND ( 'NONE', #98, .T. ) ;
#290 = APPROVAL_PERSON_ORGANIZATION ( #66, #294, #246 ) ;
#291 = DATE_AND_TIME ( #173, #50 ) ;
#292 = CC_DESIGN_PERSON_AND_ORGANIZATION_ASSIGNMENT ( #81, #73, ( #232 ) ) ;
#293 = LOCAL_TIME ( 15, 49, 36.00000000000000000, #107 ) ;
#294 = APPROVAL ( #154, 'UNSPECIFIED' ) ;
#295 = EDGE_LOOP ( 'NONE', ( #299 ) ) ;
#296 = CC_DESIGN_APPROVAL ( #237, ( #54 ) ) ;
#297 = ORIENTED_EDGE ( 'NONE', *, *, #71, .T. ) ;
#298 = DIRECTION ( 'NONE',  ( 3.491481338843133355E-15, -1.224646799147352961E-16, 1.000000000000000000 ) ) ;
#299 = ORIENTED_EDGE ( 'NONE', *, *, #15, .T. ) ;
#300 = AXIS2_PLACEMENT_3D ( 'NONE', #104, #193, #287 ) ;
#301 = ADVANCED_FACE ( 'NONE', ( #162, #256 ), #179, .F. ) ;
#302 = DIRECTION ( 'NONE',  ( 0.0000000000000000000, 1.000000000000000000, 0.0000000000000000000 ) ) ;
#303 = FACE_OUTER_BOUND ( 'NONE', #234, .T. ) ;
ENDSEC;
END-ISO-10303-21;
