ISO-10303-21;
HEADER;
FILE_DESCRIPTION (( 'STEP AP203' ),
    '1' );
FILE_NAME ('963127.step',
    '2021-10-28T09:23:27',
    ( '' ),
    ( '' ),
    'SwSTEP 2.0',
    'SolidWorks 2019',
    '' );
FILE_SCHEMA (( 'CONFIG_CONTROL_DESIGN' ));
ENDSEC;

DATA;
#1 = DIRECTION ( 'NONE',  ( 4.293794133377662246E-31, 1.000000000000000000, 1.229791517316362484E-16 ) ) ;
#2 = AXIS2_PLACEMENT_3D ( 'NONE', #115, #100, #14 ) ;
#3 = CC_DESIGN_APPROVAL ( #125, ( #55 ) ) ;
#4 = ORIENTED_EDGE ( 'NONE', *, *, #118, .T. ) ;
#5 = CALENDAR_DATE ( 2021, 28, 10 ) ;
#6 = EDGE_LOOP ( 'NONE', ( #19 ) ) ;
#7 = CC_DESIGN_DATE_AND_TIME_ASSIGNMENT ( #86, #66, ( #55 ) ) ;
#8 = CC_DESIGN_PERSON_AND_ORGANIZATION_ASSIGNMENT ( #88, #31, ( #132 ) ) ;
#9 = CARTESIAN_POINT ( 'NONE',  ( 5.586370142149013368E-14, -1.967666427706180764E-15, 16.00000000000000000 ) ) ;
#10 = CARTESIAN_POINT ( 'NONE',  ( 1.326762908760390423E-13, -4.653657836759941941E-15, 38.00000000000000000 ) ) ;
#11 = DIRECTION ( 'NONE',  ( -4.275831445896958607E-31, -1.000000000000000000, -1.224646799147353207E-16 ) ) ;
#12 = APPROVAL_PERSON_ORGANIZATION ( #170, #198, #121 ) ;
#13 = CC_DESIGN_SECURITY_CLASSIFICATION ( #55, ( #193 ) ) ;
#14 = DIRECTION ( 'NONE',  ( -5.135813185032644414E-31, -1.000000000000000000, -1.445602896647343601E-16 ) ) ;
#15 = VERTEX_POINT ( 'NONE', #62 ) ;
#16 = MECHANICAL_CONTEXT ( 'NONE', #82, 'mechanical' ) ;
#17 = APPROVAL_DATE_TIME ( #189, #46 ) ;
#18 = DATE_TIME_ROLE ( 'creation_date' ) ;
#19 = ORIENTED_EDGE ( 'NONE', *, *, #92, .F. ) ;
#20 = ADVANCED_FACE ( 'NONE', ( #56, #195 ), #41, .T. ) ;
#21 = SHAPE_DEFINITION_REPRESENTATION ( #202, #163 ) ;
#22 = CC_DESIGN_PERSON_AND_ORGANIZATION_ASSIGNMENT ( #104, #222, ( #110 ) ) ;
#23 = ORIENTED_EDGE ( 'NONE', *, *, #119, .T. ) ;
#24 = DIRECTION ( 'NONE',  ( -5.312910191413064694E-31, -1.000000000000000000, -1.495451272393799296E-16 ) ) ;
#25 = DIRECTION ( 'NONE',  ( 0.0000000000000000000, 1.000000000000000000, 0.0000000000000000000 ) ) ;
#26 = PLANE ( 'NONE',  #144 ) ;
#27 = CONICAL_SURFACE ( 'NONE', #172, 1.499999999999998668, 0.2617993877991521834 ) ;
#28 = DIRECTION ( 'NONE',  ( -3.491481338843133355E-15, 1.224646799147353207E-16, -1.000000000000000000 ) ) ;
#29 =( NAMED_UNIT ( * ) SI_UNIT ( $, .STERADIAN. ) SOLID_ANGLE_UNIT ( ) );
#30 = PRODUCT_RELATED_PRODUCT_CATEGORY ( 'detail', '', ( #132 ) ) ;
#31 = PERSON_AND_ORGANIZATION_ROLE ( 'design_owner' ) ;
#32 = CIRCLE ( 'NONE', #123, 1.499999999999998668 ) ;
#33 = APPLICATION_PROTOCOL_DEFINITION ( 'international standard', 'config_control_design', 1994, #82 ) ;
#34 = PERSON_AND_ORGANIZATION ( #182, #207 ) ;
#35 = PERSON_AND_ORGANIZATION_ROLE ( 'creator' ) ;
#36 = AXIS2_PLACEMENT_3D ( 'NONE', #96, #130, #215 ) ;
#37 = LOCAL_TIME ( 11, 23, 27.00000000000000000, #155 ) ;
#38 = CC_DESIGN_DATE_AND_TIME_ASSIGNMENT ( #188, #18, ( #110 ) ) ;
#39 = CC_DESIGN_APPROVAL ( #198, ( #110 ) ) ;
#40 = EDGE_CURVE ( 'NONE', #81, #81, #108, .T. ) ;
#41 = CYLINDRICAL_SURFACE ( 'NONE', #75, 1.449999999999999956 ) ;
#42 = DIRECTION ( 'NONE',  ( -3.491481338843133355E-15, 1.224646799147353207E-16, -1.000000000000000000 ) ) ;
#43 = DIRECTION ( 'NONE',  ( 0.0000000000000000000, 1.000000000000000000, 0.0000000000000000000 ) ) ;
#44 = FACE_BOUND ( 'NONE', #124, .T. ) ;
#45 = DIRECTION ( 'NONE',  ( 0.0000000000000000000, 1.000000000000000000, 0.0000000000000000000 ) ) ;
#46 = APPROVAL ( #158, 'UNSPECIFIED' ) ;
#47 = CARTESIAN_POINT ( 'NONE',  ( 1.316288464743861212E-13, 1.499999999999995337, 37.69999999999999574 ) ) ;
#48 = PERSON_AND_ORGANIZATION ( #182, #207 ) ;
#49 = CLOSED_SHELL ( 'NONE', ( #206, #20, #208 ) ) ;
#50 = CALENDAR_DATE ( 2021, 28, 10 ) ;
#51 = AXIS2_PLACEMENT_3D ( 'NONE', #10, #28, #199 ) ;
#52 = EDGE_LOOP ( 'NONE', ( #177 ) ) ;
#53 = ORIENTED_EDGE ( 'NONE', *, *, #92, .T. ) ;
#54 = LOCAL_TIME ( 11, 23, 27.00000000000000000, #220 ) ;
#55 = SECURITY_CLASSIFICATION ( '', '', #103 ) ;
#56 = FACE_OUTER_BOUND ( 'NONE', #178, .T. ) ;
#57 = CARTESIAN_POINT ( 'NONE',  ( 1.842653157210496230E-15, -1.449999999999999956, 0.5277568396860000677 ) ) ;
#58 = PLANE ( 'NONE',  #36 ) ;
#59 = DIRECTION ( 'NONE',  ( 3.491481338843133355E-15, -1.229791517316362731E-16, 1.000000000000000000 ) ) ;
#60 = DIRECTION ( 'NONE',  ( -3.491481338843133355E-15, 1.224646799147353207E-16, -1.000000000000000000 ) ) ;
#61 = EDGE_CURVE ( 'NONE', #102, #102, #160, .T. ) ;
#62 = CARTESIAN_POINT ( 'NONE',  ( 5.651522070900217852E-14, 1.499999999999996669, 16.18660254037843771 ) ) ;
#63 = AXIS2_PLACEMENT_3D ( 'NONE', #129, #201, #24 ) ;
#64 = CARTESIAN_POINT ( 'NONE',  ( 0.0000000000000000000, 0.0000000000000000000, 0.0000000000000000000 ) ) ;
#65 = CALENDAR_DATE ( 2021, 28, 10 ) ;
#66 = DATE_TIME_ROLE ( 'classification_date' ) ;
#67 = LOCAL_TIME ( 11, 23, 27.00000000000000000, #173 ) ;
#68 = COORDINATED_UNIVERSAL_TIME_OFFSET ( 1, 0, .AHEAD. ) ;
#69 = CC_DESIGN_PERSON_AND_ORGANIZATION_ASSIGNMENT ( #48, #106, ( #193 ) ) ;
#70 = AXIS2_PLACEMENT_3D ( 'NONE', #147, #98, #11 ) ;
#71 = APPROVAL_PERSON_ORGANIZATION ( #223, #125, #154 ) ;
#72 = EDGE_LOOP ( 'NONE', ( #211 ) ) ;
#73 = MANIFOLD_SOLID_BREP ( 'Corps-Déplacer/Copier1[1]', #143 ) ;
#74 = ORIENTED_EDGE ( 'NONE', *, *, #118, .F. ) ;
#75 = AXIS2_PLACEMENT_3D ( 'NONE', #111, #93, #1 ) ;
#76 = VERTEX_POINT ( 'NONE', #57 ) ;
#77 = EDGE_CURVE ( 'NONE', #15, #15, #32, .T. ) ;
#78 = DIRECTION ( 'NONE',  ( -3.491481338843133355E-15, 1.224646799147353207E-16, -1.000000000000000000 ) ) ;
#79 = FACE_OUTER_BOUND ( 'NONE', #109, .T. ) ;
#80 = AXIS2_PLACEMENT_3D ( 'NONE', #64, #89, #187 ) ;
#81 = VERTEX_POINT ( 'NONE', #185 ) ;
#82 = APPLICATION_CONTEXT ( 'configuration controlled 3d designs of mechanical parts and assemblies' ) ;
#83 = DIRECTION ( 'NONE',  ( 4.275831445896958607E-31, 1.000000000000000000, 1.224646799147353207E-16 ) ) ;
#84 = APPROVAL_STATUS ( 'not_yet_approved' ) ;
#85 = CONICAL_SURFACE ( 'NONE', #2, 1.499999999999995559, 1.221730476396026388 ) ;
#86 = DATE_AND_TIME ( #171, #37 ) ;
#87 = ADVANCED_FACE ( 'NONE', ( #179 ), #58, .F. ) ;
#88 = PERSON_AND_ORGANIZATION ( #182, #207 ) ;
#89 = DIRECTION ( 'NONE',  ( 0.0000000000000000000, 0.0000000000000000000, 1.000000000000000000 ) ) ;
#90 = CIRCLE ( 'NONE', #164, 1.499999999999999778 ) ;
#91 = ADVANCED_FACE ( 'NONE', ( #217 ), #26, .F. ) ;
#92 = EDGE_CURVE ( 'NONE', #214, #214, #90, .T. ) ;
#93 = DIRECTION ( 'NONE',  ( -3.491481338843133355E-15, 1.229791517316362731E-16, -1.000000000000000000 ) ) ;
#94 = AXIS2_PLACEMENT_3D ( 'NONE', #150, #126, #149 ) ;
#95 = EDGE_LOOP ( 'NONE', ( #139 ) ) ;
#96 = CARTESIAN_POINT ( 'NONE',  ( 5.586370142149013368E-14, 1.124819836996388416E-32, 16.00000000000000000 ) ) ;
#97 = ADVANCED_FACE ( 'NONE', ( #169, #79 ), #27, .T. ) ;
#98 = DIRECTION ( 'NONE',  ( 3.491481338843133355E-15, -1.224646799147353207E-16, 1.000000000000000000 ) ) ;
#99 = FACE_OUTER_BOUND ( 'NONE', #95, .T. ) ;
#100 = DIRECTION ( 'NONE',  ( 3.491481338843133355E-15, -1.224646799147353207E-16, 1.000000000000000000 ) ) ;
#101 = APPROVAL_PERSON_ORGANIZATION ( #34, #46, #105 ) ;
#102 = VERTEX_POINT ( 'NONE', #146 ) ;
#103 = SECURITY_CLASSIFICATION_LEVEL ( 'unclassified' ) ;
#104 = PERSON_AND_ORGANIZATION ( #182, #207 ) ;
#105 = APPROVAL_ROLE ( '' ) ;
#106 = PERSON_AND_ORGANIZATION_ROLE ( 'design_supplier' ) ;
#107 = EDGE_LOOP ( 'NONE', ( #74 ) ) ;
#108 = CIRCLE ( 'NONE', #94, 1.199999999999999956 ) ;
#109 = EDGE_LOOP ( 'NONE', ( #162 ) ) ;
#110 = PRODUCT_DEFINITION ( 'UNKNOWN', '', #193, #192 ) ;
#111 = CARTESIAN_POINT ( 'NONE',  ( 0.0000000000000000000, 0.0000000000000000000, 0.0000000000000000000 ) ) ;
#112 = DIRECTION ( 'NONE',  ( -3.491481338843133355E-15, 1.229791517316362731E-16, -1.000000000000000000 ) ) ;
#113 = FACE_OUTER_BOUND ( 'NONE', #52, .T. ) ;
#114 = DIRECTION ( 'NONE',  ( 4.275831445896958607E-31, 1.000000000000000000, 1.224646799147353207E-16 ) ) ;
#115 = CARTESIAN_POINT ( 'NONE',  ( 1.906192921252232855E-15, -6.686024735685322183E-17, 0.5459553513993090634 ) ) ;
#116 = CC_DESIGN_APPROVAL ( #46, ( #193 ) ) ;
#117 = COORDINATED_UNIVERSAL_TIME_OFFSET ( 1, 0, .AHEAD. ) ;
#118 = EDGE_CURVE ( 'NONE', #76, #76, #122, .T. ) ;
#119 = EDGE_CURVE ( 'NONE', #221, #221, #191, .T. ) ;
#120 = PERSON_AND_ORGANIZATION_ROLE ( 'classification_officer' ) ;
#121 = APPROVAL_ROLE ( '' ) ;
#122 = CIRCLE ( 'NONE', #63, 1.449999999999999956 ) ;
#123 = AXIS2_PLACEMENT_3D ( 'NONE', #204, #181, #25 ) ;
#124 = EDGE_LOOP ( 'NONE', ( #159 ) ) ;
#125 = APPROVAL ( #209, 'UNSPECIFIED' ) ;
#126 = DIRECTION ( 'NONE',  ( -3.491481338843133355E-15, 1.224646799147353207E-16, -1.000000000000000000 ) ) ;
#127 = CARTESIAN_POINT ( 'NONE',  ( 5.586370142149013368E-14, -1.967666427706180764E-15, 16.00000000000000000 ) ) ;
#128 = PLANE ( 'NONE',  #70 ) ;
#129 = CARTESIAN_POINT ( 'NONE',  ( 1.842653157210497019E-15, -6.463157244495830507E-17, 0.5277568396860002897 ) ) ;
#130 = DIRECTION ( 'NONE',  ( 3.491481338843133355E-15, -1.224646799147353207E-16, 1.000000000000000000 ) ) ;
#131 = PERSON_AND_ORGANIZATION ( #182, #207 ) ;
#132 = PRODUCT ( '963127', '963127', '', ( #16 ) ) ;
#133 = CARTESIAN_POINT ( 'NONE',  ( 5.586370142149013368E-14, 1.449999999999997957, 16.00000000000000000 ) ) ;
#134 = LOCAL_TIME ( 11, 23, 27.00000000000000000, #68 ) ;
#135 = APPROVAL_DATE_TIME ( #151, #198 ) ;
#136 = MANIFOLD_SOLID_BREP ( 'Corps-Déplacer/Copier1[2]', #49 ) ;
#137 = AXIS2_PLACEMENT_3D ( 'NONE', #9, #165, #45 ) ;
#138 = DATE_AND_TIME ( #5, #153 ) ;
#139 = ORIENTED_EDGE ( 'NONE', *, *, #77, .F. ) ;
#140 = UNCERTAINTY_MEASURE_WITH_UNIT (LENGTH_MEASURE( 1.000000000000000082E-05 ), #175, 'distance_accuracy_value', 'NONE');
#141 = EDGE_LOOP ( 'NONE', ( #53 ) ) ;
#142 = EDGE_LOOP ( 'NONE', ( #23 ) ) ;
#143 = CLOSED_SHELL ( 'NONE', ( #184, #196, #91, #97, #87 ) ) ;
#144 = AXIS2_PLACEMENT_3D ( 'NONE', #167, #42, #83 ) ;
#145 = ORIENTED_EDGE ( 'NONE', *, *, #119, .F. ) ;
#146 = CARTESIAN_POINT ( 'NONE',  ( 5.586370142149013368E-14, 1.449999999999997957, 16.00000000000000000 ) ) ;
#147 = CARTESIAN_POINT ( 'NONE',  ( 5.586370142149013368E-14, 1.124819836996388416E-32, 16.00000000000000000 ) ) ;
#148 = FACE_OUTER_BOUND ( 'NONE', #141, .T. ) ;
#149 = DIRECTION ( 'NONE',  ( 0.0000000000000000000, 1.000000000000000000, 0.0000000000000000000 ) ) ;
#150 = CARTESIAN_POINT ( 'NONE',  ( 1.326762908760390423E-13, -4.653657836759941941E-15, 38.00000000000000000 ) ) ;
#151 = DATE_AND_TIME ( #50, #134 ) ;
#152 = CONICAL_SURFACE ( 'NONE', #51, 1.199999999999999956, 0.7853981633974453924 ) ;
#153 = LOCAL_TIME ( 11, 23, 27.00000000000000000, #117 ) ;
#154 = APPROVAL_ROLE ( '' ) ;
#155 = COORDINATED_UNIVERSAL_TIME_OFFSET ( 1, 0, .AHEAD. ) ;
#156 = APPLICATION_PROTOCOL_DEFINITION ( 'international standard', 'config_control_design', 1994, #218 ) ;
#157 =( GEOMETRIC_REPRESENTATION_CONTEXT ( 3 ) GLOBAL_UNCERTAINTY_ASSIGNED_CONTEXT ( ( #140 ) ) GLOBAL_UNIT_ASSIGNED_CONTEXT ( ( #175, #186, #29 ) ) REPRESENTATION_CONTEXT ( 'NONE', 'WORKASPACE' ) );
#158 = APPROVAL_STATUS ( 'not_yet_approved' ) ;
#159 = ORIENTED_EDGE ( 'NONE', *, *, #40, .T. ) ;
#160 = CIRCLE ( 'NONE', #203, 1.449999999999999956 ) ;
#161 = APPROVAL_DATE_TIME ( #138, #125 ) ;
#162 = ORIENTED_EDGE ( 'NONE', *, *, #77, .T. ) ;
#163 = ADVANCED_BREP_SHAPE_REPRESENTATION ( '963127', ( #73, #136, #80 ), #157 ) ;
#164 = AXIS2_PLACEMENT_3D ( 'NONE', #197, #60, #180 ) ;
#165 = DIRECTION ( 'NONE',  ( -3.491481338843133355E-15, 1.229791517316362731E-16, -1.000000000000000000 ) ) ;
#166 = DIRECTION ( 'NONE',  ( 0.0000000000000000000, -1.000000000000000000, 0.0000000000000000000 ) ) ;
#167 = CARTESIAN_POINT ( 'NONE',  ( 1.326762908760390423E-13, 8.998558695971077224E-33, 38.00000000000000000 ) ) ;
#168 = FACE_OUTER_BOUND ( 'NONE', #6, .T. ) ;
#169 = FACE_BOUND ( 'NONE', #212, .T. ) ;
#170 = PERSON_AND_ORGANIZATION ( #182, #207 ) ;
#171 = CALENDAR_DATE ( 2021, 28, 10 ) ;
#172 = AXIS2_PLACEMENT_3D ( 'NONE', #219, #59, #166 ) ;
#173 = COORDINATED_UNIVERSAL_TIME_OFFSET ( 1, 0, .AHEAD. ) ;
#174 = PERSON_AND_ORGANIZATION ( #182, #207 ) ;
#175 =( LENGTH_UNIT ( ) NAMED_UNIT ( * ) SI_UNIT ( .MILLI., .METRE. ) );
#176 = AXIS2_PLACEMENT_3D ( 'NONE', #200, #78, #114 ) ;
#177 = ORIENTED_EDGE ( 'NONE', *, *, #61, .F. ) ;
#178 = EDGE_LOOP ( 'NONE', ( #210 ) ) ;
#179 = FACE_OUTER_BOUND ( 'NONE', #142, .T. ) ;
#180 = DIRECTION ( 'NONE',  ( 0.0000000000000000000, 1.000000000000000000, 0.0000000000000000000 ) ) ;
#181 = DIRECTION ( 'NONE',  ( -3.491481338843133355E-15, 1.229791517316362731E-16, -1.000000000000000000 ) ) ;
#182 = PERSON ( 'UNSPECIFIED', 'UNSPECIFIED', 'UNSPECIFIED', ('UNSPECIFIED'), ('UNSPECIFIED'), ('UNSPECIFIED') ) ;
#183 = FACE_OUTER_BOUND ( 'NONE', #194, .T. ) ;
#184 = ADVANCED_FACE ( 'NONE', ( #99, #148 ), #216, .T. ) ;
#185 = CARTESIAN_POINT ( 'NONE',  ( 1.326762908760390423E-13, 1.199999999999995293, 38.00000000000000000 ) ) ;
#186 =( NAMED_UNIT ( * ) PLANE_ANGLE_UNIT ( ) SI_UNIT ( $, .RADIAN. ) );
#187 = DIRECTION ( 'NONE',  ( 1.000000000000000000, 0.0000000000000000000, 0.0000000000000000000 ) ) ;
#188 = DATE_AND_TIME ( #205, #67 ) ;
#189 = DATE_AND_TIME ( #65, #54 ) ;
#190 = CC_DESIGN_PERSON_AND_ORGANIZATION_ASSIGNMENT ( #174, #35, ( #193 ) ) ;
#191 = CIRCLE ( 'NONE', #137, 1.449999999999999956 ) ;
#192 = DESIGN_CONTEXT ( 'detailed design', #218, 'design' ) ;
#193 = PRODUCT_DEFINITION_FORMATION_WITH_SPECIFIED_SOURCE ( 'ANY', '', #132, .NOT_KNOWN. ) ;
#194 = EDGE_LOOP ( 'NONE', ( #4 ) ) ;
#195 = FACE_OUTER_BOUND ( 'NONE', #107, .T. ) ;
#196 = ADVANCED_FACE ( 'NONE', ( #168, #44 ), #152, .T. ) ;
#197 = CARTESIAN_POINT ( 'NONE',  ( 1.316288464743861212E-13, -4.616918432785521081E-15, 37.69999999999999574 ) ) ;
#198 = APPROVAL ( #84, 'UNSPECIFIED' ) ;
#199 = DIRECTION ( 'NONE',  ( 0.0000000000000000000, 1.000000000000000000, 0.0000000000000000000 ) ) ;
#200 = CARTESIAN_POINT ( 'NONE',  ( 0.0000000000000000000, 0.0000000000000000000, 0.0000000000000000000 ) ) ;
#201 = DIRECTION ( 'NONE',  ( -3.491481338843133355E-15, 1.224646799147353207E-16, -1.000000000000000000 ) ) ;
#202 = PRODUCT_DEFINITION_SHAPE ( 'NONE', 'NONE',  #110 ) ;
#203 = AXIS2_PLACEMENT_3D ( 'NONE', #127, #112, #43 ) ;
#204 = CARTESIAN_POINT ( 'NONE',  ( 5.651522070900217852E-14, -1.990614649832889055E-15, 16.18660254037843771 ) ) ;
#205 = CALENDAR_DATE ( 2021, 28, 10 ) ;
#206 = ADVANCED_FACE ( 'NONE', ( #113 ), #128, .T. ) ;
#207 = ORGANIZATION ( 'UNSPECIFIED', 'UNSPECIFIED', '' ) ;
#208 = ADVANCED_FACE ( 'NONE', ( #183 ), #85, .T. ) ;
#209 = APPROVAL_STATUS ( 'not_yet_approved' ) ;
#210 = ORIENTED_EDGE ( 'NONE', *, *, #61, .T. ) ;
#211 = ORIENTED_EDGE ( 'NONE', *, *, #40, .F. ) ;
#212 = EDGE_LOOP ( 'NONE', ( #145 ) ) ;
#213 = CC_DESIGN_PERSON_AND_ORGANIZATION_ASSIGNMENT ( #131, #120, ( #55 ) ) ;
#214 = VERTEX_POINT ( 'NONE', #47 ) ;
#215 = DIRECTION ( 'NONE',  ( -4.275831445896958607E-31, -1.000000000000000000, -1.224646799147353207E-16 ) ) ;
#216 = CYLINDRICAL_SURFACE ( 'NONE', #176, 1.499999999999998668 ) ;
#217 = FACE_OUTER_BOUND ( 'NONE', #72, .T. ) ;
#218 = APPLICATION_CONTEXT ( 'configuration controlled 3d designs of mechanical parts and assemblies' ) ;
#219 = CARTESIAN_POINT ( 'NONE',  ( 5.651522070900217852E-14, -1.990614649832889055E-15, 16.18660254037843771 ) ) ;
#220 = COORDINATED_UNIVERSAL_TIME_OFFSET ( 1, 0, .AHEAD. ) ;
#221 = VERTEX_POINT ( 'NONE', #133 ) ;
#222 = PERSON_AND_ORGANIZATION_ROLE ( 'creator' ) ;
#223 = PERSON_AND_ORGANIZATION ( #182, #207 ) ;
ENDSEC;
END-ISO-10303-21;
