ISO-10303-21;
HEADER;
FILE_DESCRIPTION (( 'STEP AP203' ),
    '1' );
FILE_NAME ('963126.step',
    '2021-10-28T09:23:26',
    ( '' ),
    ( '' ),
    'SwSTEP 2.0',
    'SolidWorks 2019',
    '' );
FILE_SCHEMA (( 'CONFIG_CONTROL_DESIGN' ));
ENDSEC;

DATA;
#1 = APPROVAL_STATUS ( 'not_yet_approved' ) ;
#2 = CLOSED_SHELL ( 'NONE', ( #129, #214, #198, #112, #113 ) ) ;
#3 = DIRECTION ( 'NONE',  ( 1.000000000000000000, 0.0000000000000000000, 0.0000000000000000000 ) ) ;
#4 = APPROVAL_STATUS ( 'not_yet_approved' ) ;
#5 = EDGE_LOOP ( 'NONE', ( #178 ) ) ;
#6 = APPROVAL_ROLE ( '' ) ;
#7 = AXIS2_PLACEMENT_3D ( 'NONE', #36, #42, #208 ) ;
#8 = ORIENTED_EDGE ( 'NONE', *, *, #95, .T. ) ;
#9 = ADVANCED_FACE ( 'NONE', ( #93 ), #56, .T. ) ;
#10 = CARTESIAN_POINT ( 'NONE',  ( 5.586370142149013368E-14, -1.967666427706180764E-15, 16.00000000000000000 ) ) ;
#11 = CARTESIAN_POINT ( 'NONE',  ( 1.326762908760390423E-13, -4.653657836759941941E-15, 38.00000000000000000 ) ) ;
#12 = EDGE_CURVE ( 'NONE', #136, #136, #203, .T. ) ;
#13 = DIRECTION ( 'NONE',  ( 0.0000000000000000000, -1.000000000000000000, 0.0000000000000000000 ) ) ;
#14 = LOCAL_TIME ( 11, 23, 26.00000000000000000, #70 ) ;
#15 = CARTESIAN_POINT ( 'NONE',  ( 1.779113393168754872E-15, -1.399999999999999911, 0.5095583279726897397 ) ) ;
#16 =( NAMED_UNIT ( * ) SI_UNIT ( $, .STERADIAN. ) SOLID_ANGLE_UNIT ( ) );
#17 = AXIS2_PLACEMENT_3D ( 'NONE', #105, #170, #150 ) ;
#18 = APPROVAL_DATE_TIME ( #142, #37 ) ;
#19 = DATE_AND_TIME ( #175, #126 ) ;
#20 = SECURITY_CLASSIFICATION_LEVEL ( 'unclassified' ) ;
#21 = CARTESIAN_POINT ( 'NONE',  ( 5.586370142149013368E-14, -1.967666427706180764E-15, 16.00000000000000000 ) ) ;
#22 = ORIENTED_EDGE ( 'NONE', *, *, #71, .T. ) ;
#23 = PRODUCT_DEFINITION ( 'UNKNOWN', '', #201, #39 ) ;
#24 = CIRCLE ( 'NONE', #155, 1.499999999999998668 ) ;
#25 = CC_DESIGN_APPROVAL ( #37, ( #201 ) ) ;
#26 = DIRECTION ( 'NONE',  ( 4.275831445896958607E-31, 1.000000000000000000, 1.224646799147353207E-16 ) ) ;
#27 = DIRECTION ( 'NONE',  ( 0.0000000000000000000, 1.000000000000000000, 0.0000000000000000000 ) ) ;
#28 = VERTEX_POINT ( 'NONE', #101 ) ;
#29 = AXIS2_PLACEMENT_3D ( 'NONE', #187, #206, #26 ) ;
#30 = FACE_OUTER_BOUND ( 'NONE', #108, .T. ) ;
#31 = CARTESIAN_POINT ( 'NONE',  ( 0.0000000000000000000, 0.0000000000000000000, 0.0000000000000000000 ) ) ;
#32 = AXIS2_PLACEMENT_3D ( 'NONE', #54, #200, #181 ) ;
#33 = ORGANIZATION ( 'UNSPECIFIED', 'UNSPECIFIED', '' ) ;
#34 = PERSON_AND_ORGANIZATION ( #158, #33 ) ;
#35 = EDGE_LOOP ( 'NONE', ( #22 ) ) ;
#36 = CARTESIAN_POINT ( 'NONE',  ( 1.326762908760390423E-13, 8.998558695971077224E-33, 38.00000000000000000 ) ) ;
#37 = APPROVAL ( #1, 'UNSPECIFIED' ) ;
#38 = CIRCLE ( 'NONE', #173, 1.199999999999999956 ) ;
#39 = DESIGN_CONTEXT ( 'detailed design', #61, 'design' ) ;
#40 = DIRECTION ( 'NONE',  ( 0.0000000000000000000, 1.000000000000000000, 0.0000000000000000000 ) ) ;
#41 = AXIS2_PLACEMENT_3D ( 'NONE', #10, #99, #40 ) ;
#42 = DIRECTION ( 'NONE',  ( -3.491481338843133355E-15, 1.224646799147353207E-16, -1.000000000000000000 ) ) ;
#43 = FACE_OUTER_BOUND ( 'NONE', #50, .T. ) ;
#44 = ADVANCED_FACE ( 'NONE', ( #165, #217 ), #185, .T. ) ;
#45 = DIRECTION ( 'NONE',  ( 0.0000000000000000000, 1.000000000000000000, 0.0000000000000000000 ) ) ;
#46 = CALENDAR_DATE ( 2021, 28, 10 ) ;
#47 = PERSON_AND_ORGANIZATION_ROLE ( 'creator' ) ;
#48 = DIRECTION ( 'NONE',  ( 0.0000000000000000000, 0.0000000000000000000, 1.000000000000000000 ) ) ;
#49 = EDGE_CURVE ( 'NONE', #79, #79, #24, .T. ) ;
#50 = EDGE_LOOP ( 'NONE', ( #143 ) ) ;
#51 = AXIS2_PLACEMENT_3D ( 'NONE', #21, #114, #207 ) ;
#52 = APPROVAL_PERSON_ORGANIZATION ( #139, #37, #209 ) ;
#53 = EDGE_LOOP ( 'NONE', ( #109 ) ) ;
#54 = CARTESIAN_POINT ( 'NONE',  ( 5.586370142149013368E-14, 1.124819836996388416E-32, 16.00000000000000000 ) ) ;
#55 = APPROVAL_DATE_TIME ( #215, #117 ) ;
#56 = PLANE ( 'NONE',  #32 ) ;
#57 = AXIS2_PLACEMENT_3D ( 'NONE', #205, #222, #166 ) ;
#58 = DIRECTION ( 'NONE',  ( -5.502656983963531384E-31, -1.000000000000000000, -1.548860246407863583E-16 ) ) ;
#59 = MANIFOLD_SOLID_BREP ( 'Corps-Déplacer/Copier1[2]', #164 ) ;
#60 = AXIS2_PLACEMENT_3D ( 'NONE', #116, #188, #27 ) ;
#61 = APPLICATION_CONTEXT ( 'configuration controlled 3d designs of mechanical parts and assemblies' ) ;
#62 = MANIFOLD_SOLID_BREP ( 'Corps-Déplacer/Copier1[1]', #2 ) ;
#63 = FACE_OUTER_BOUND ( 'NONE', #53, .T. ) ;
#64 = DIRECTION ( 'NONE',  ( 3.491481338843133355E-15, -1.229791517316362731E-16, 1.000000000000000000 ) ) ;
#65 = CIRCLE ( 'NONE', #41, 1.399999999999999911 ) ;
#66 = AXIS2_PLACEMENT_3D ( 'NONE', #31, #48, #3 ) ;
#67 = DIRECTION ( 'NONE',  ( -3.491481338843133355E-15, 1.224646799147353207E-16, -1.000000000000000000 ) ) ;
#68 = FACE_BOUND ( 'NONE', #124, .T. ) ;
#69 = APPLICATION_PROTOCOL_DEFINITION ( 'international standard', 'config_control_design', 1994, #61 ) ;
#70 = COORDINATED_UNIVERSAL_TIME_OFFSET ( 1, 0, .AHEAD. ) ;
#71 = EDGE_CURVE ( 'NONE', #28, #28, #65, .T. ) ;
#72 =( LENGTH_UNIT ( ) NAMED_UNIT ( * ) SI_UNIT ( .MILLI., .METRE. ) );
#73 = APPROVAL_STATUS ( 'not_yet_approved' ) ;
#74 = ORIENTED_EDGE ( 'NONE', *, *, #147, .F. ) ;
#75 = CIRCLE ( 'NONE', #102, 1.499999999999999778 ) ;
#76 = PERSON_AND_ORGANIZATION_ROLE ( 'design_owner' ) ;
#77 = CC_DESIGN_PERSON_AND_ORGANIZATION_ASSIGNMENT ( #110, #47, ( #23 ) ) ;
#78 = EDGE_LOOP ( 'NONE', ( #94 ) ) ;
#79 = VERTEX_POINT ( 'NONE', #190 ) ;
#80 = CARTESIAN_POINT ( 'NONE',  ( 1.906192921252232855E-15, -6.686024735685322183E-17, 0.5459553513993090634 ) ) ;
#81 = DIRECTION ( 'NONE',  ( 0.0000000000000000000, 1.000000000000000000, 0.0000000000000000000 ) ) ;
#82 = UNCERTAINTY_MEASURE_WITH_UNIT (LENGTH_MEASURE( 1.000000000000000082E-05 ), #72, 'distance_accuracy_value', 'NONE');
#83 = DIRECTION ( 'NONE',  ( 0.0000000000000000000, 1.000000000000000000, 0.0000000000000000000 ) ) ;
#84 = CC_DESIGN_SECURITY_CLASSIFICATION ( #97, ( #201 ) ) ;
#85 = VERTEX_POINT ( 'NONE', #223 ) ;
#86 = DATE_TIME_ROLE ( 'creation_date' ) ;
#87 = PERSON_AND_ORGANIZATION ( #158, #33 ) ;
#88 = PERSON_AND_ORGANIZATION_ROLE ( 'classification_officer' ) ;
#89 = ORIENTED_EDGE ( 'NONE', *, *, #147, .T. ) ;
#90 = PERSON_AND_ORGANIZATION_ROLE ( 'creator' ) ;
#91 = CC_DESIGN_APPROVAL ( #132, ( #23 ) ) ;
#92 = SHAPE_DEFINITION_REPRESENTATION ( #163, #167 ) ;
#93 = FACE_OUTER_BOUND ( 'NONE', #78, .T. ) ;
#94 = ORIENTED_EDGE ( 'NONE', *, *, #71, .F. ) ;
#95 = EDGE_CURVE ( 'NONE', #169, #169, #221, .T. ) ;
#96 = DIRECTION ( 'NONE',  ( -5.135813185032644414E-31, -1.000000000000000000, -1.445602896647343601E-16 ) ) ;
#97 = SECURITY_CLASSIFICATION ( '', '', #20 ) ;
#98 = CARTESIAN_POINT ( 'NONE',  ( 1.779113393168755661E-15, -6.240289753306319111E-17, 0.5095583279726899617 ) ) ;
#99 = DIRECTION ( 'NONE',  ( -3.491481338843133355E-15, 1.229791517316362731E-16, -1.000000000000000000 ) ) ;
#100 = ADVANCED_FACE ( 'NONE', ( #130 ), #211, .T. ) ;
#101 = CARTESIAN_POINT ( 'NONE',  ( 5.586370142149013368E-14, 1.399999999999998135, 16.00000000000000000 ) ) ;
#102 = AXIS2_PLACEMENT_3D ( 'NONE', #149, #220, #83 ) ;
#103 = LOCAL_TIME ( 11, 23, 26.00000000000000000, #123 ) ;
#104 = APPROVAL_PERSON_ORGANIZATION ( #160, #117, #6 ) ;
#105 = CARTESIAN_POINT ( 'NONE',  ( 0.0000000000000000000, 0.0000000000000000000, 0.0000000000000000000 ) ) ;
#106 = APPLICATION_PROTOCOL_DEFINITION ( 'international standard', 'config_control_design', 1994, #145 ) ;
#107 = COORDINATED_UNIVERSAL_TIME_OFFSET ( 1, 0, .AHEAD. ) ;
#108 = EDGE_LOOP ( 'NONE', ( #111 ) ) ;
#109 = ORIENTED_EDGE ( 'NONE', *, *, #12, .T. ) ;
#110 = PERSON_AND_ORGANIZATION ( #158, #33 ) ;
#111 = ORIENTED_EDGE ( 'NONE', *, *, #174, .F. ) ;
#112 = ADVANCED_FACE ( 'NONE', ( #119, #146 ), #186, .T. ) ;
#113 = ADVANCED_FACE ( 'NONE', ( #63 ), #202, .F. ) ;
#114 = DIRECTION ( 'NONE',  ( -3.491481338843133355E-15, 1.229791517316362731E-16, -1.000000000000000000 ) ) ;
#115 = CYLINDRICAL_SURFACE ( 'NONE', #29, 1.499999999999998668 ) ;
#116 = CARTESIAN_POINT ( 'NONE',  ( 1.326762908760390423E-13, -4.653657836759941941E-15, 38.00000000000000000 ) ) ;
#117 = APPROVAL ( #4, 'UNSPECIFIED' ) ;
#118 = CARTESIAN_POINT ( 'NONE',  ( 5.586370142149013368E-14, 1.399999999999998135, 16.00000000000000000 ) ) ;
#119 = FACE_BOUND ( 'NONE', #196, .T. ) ;
#120 = PERSON_AND_ORGANIZATION ( #158, #33 ) ;
#121 = PERSON_AND_ORGANIZATION ( #158, #33 ) ;
#122 = ORIENTED_EDGE ( 'NONE', *, *, #12, .F. ) ;
#123 = COORDINATED_UNIVERSAL_TIME_OFFSET ( 1, 0, .AHEAD. ) ;
#124 = EDGE_LOOP ( 'NONE', ( #89 ) ) ;
#125 = CALENDAR_DATE ( 2021, 28, 10 ) ;
#126 = LOCAL_TIME ( 11, 23, 26.00000000000000000, #107 ) ;
#127 = DIRECTION ( 'NONE',  ( 3.491481338843133355E-15, -1.224646799147353207E-16, 1.000000000000000000 ) ) ;
#128 = CALENDAR_DATE ( 2021, 28, 10 ) ;
#129 = ADVANCED_FACE ( 'NONE', ( #191, #43 ), #115, .T. ) ;
#130 = FACE_OUTER_BOUND ( 'NONE', #159, .T. ) ;
#131 = AXIS2_PLACEMENT_3D ( 'NONE', #148, #64, #13 ) ;
#132 = APPROVAL ( #73, 'UNSPECIFIED' ) ;
#133 = PLANE ( 'NONE',  #7 ) ;
#134 =( GEOMETRIC_REPRESENTATION_CONTEXT ( 3 ) GLOBAL_UNCERTAINTY_ASSIGNED_CONTEXT ( ( #82 ) ) GLOBAL_UNIT_ASSIGNED_CONTEXT ( ( #72, #192, #16 ) ) REPRESENTATION_CONTEXT ( 'NONE', 'WORKASPACE' ) );
#135 = CC_DESIGN_APPROVAL ( #117, ( #97 ) ) ;
#136 = VERTEX_POINT ( 'NONE', #118 ) ;
#137 = FACE_OUTER_BOUND ( 'NONE', #180, .T. ) ;
#138 = CC_DESIGN_PERSON_AND_ORGANIZATION_ASSIGNMENT ( #194, #90, ( #201 ) ) ;
#139 = PERSON_AND_ORGANIZATION ( #158, #33 ) ;
#140 = CALENDAR_DATE ( 2021, 28, 10 ) ;
#141 = VERTEX_POINT ( 'NONE', #171 ) ;
#142 = DATE_AND_TIME ( #140, #14 ) ;
#143 = ORIENTED_EDGE ( 'NONE', *, *, #174, .T. ) ;
#144 = ORIENTED_EDGE ( 'NONE', *, *, #49, .F. ) ;
#145 = APPLICATION_CONTEXT ( 'configuration controlled 3d designs of mechanical parts and assemblies' ) ;
#146 = FACE_OUTER_BOUND ( 'NONE', #5, .T. ) ;
#147 = EDGE_CURVE ( 'NONE', #85, #85, #38, .T. ) ;
#148 = CARTESIAN_POINT ( 'NONE',  ( 5.716673999651422336E-14, -2.013562871959598529E-15, 16.37320508075688252 ) ) ;
#149 = CARTESIAN_POINT ( 'NONE',  ( 1.316288464743861212E-13, -4.616918432785521081E-15, 37.69999999999999574 ) ) ;
#150 = DIRECTION ( 'NONE',  ( 4.293794133377662246E-31, 1.000000000000000000, 1.229791517316362977E-16 ) ) ;
#151 = DIRECTION ( 'NONE',  ( -3.491481338843133355E-15, 1.224646799147353207E-16, -1.000000000000000000 ) ) ;
#152 = CC_DESIGN_PERSON_AND_ORGANIZATION_ASSIGNMENT ( #121, #76, ( #182 ) ) ;
#153 = DATE_AND_TIME ( #125, #218 ) ;
#154 = COORDINATED_UNIVERSAL_TIME_OFFSET ( 1, 0, .AHEAD. ) ;
#155 = AXIS2_PLACEMENT_3D ( 'NONE', #219, #168, #45 ) ;
#156 = CC_DESIGN_DATE_AND_TIME_ASSIGNMENT ( #153, #86, ( #23 ) ) ;
#157 = DATE_TIME_ROLE ( 'classification_date' ) ;
#158 = PERSON ( 'UNSPECIFIED', 'UNSPECIFIED', 'UNSPECIFIED', ('UNSPECIFIED'), ('UNSPECIFIED'), ('UNSPECIFIED') ) ;
#159 = EDGE_LOOP ( 'NONE', ( #8 ) ) ;
#160 = PERSON_AND_ORGANIZATION ( #158, #33 ) ;
#161 = CONICAL_SURFACE ( 'NONE', #60, 1.199999999999999956, 0.7853981633974453924 ) ;
#162 = ORIENTED_EDGE ( 'NONE', *, *, #95, .F. ) ;
#163 = PRODUCT_DEFINITION_SHAPE ( 'NONE', 'NONE',  #23 ) ;
#164 = CLOSED_SHELL ( 'NONE', ( #9, #44, #100 ) ) ;
#165 = FACE_OUTER_BOUND ( 'NONE', #35, .T. ) ;
#166 = DIRECTION ( 'NONE',  ( -4.275831445896958607E-31, -1.000000000000000000, -1.224646799147353207E-16 ) ) ;
#167 = ADVANCED_BREP_SHAPE_REPRESENTATION ( '963126', ( #62, #59, #66 ), #134 ) ;
#168 = DIRECTION ( 'NONE',  ( -3.491481338843133355E-15, 1.229791517316362731E-16, -1.000000000000000000 ) ) ;
#169 = VERTEX_POINT ( 'NONE', #15 ) ;
#170 = DIRECTION ( 'NONE',  ( -3.491481338843133355E-15, 1.229791517316362731E-16, -1.000000000000000000 ) ) ;
#171 = CARTESIAN_POINT ( 'NONE',  ( 1.316288464743861212E-13, 1.499999999999995337, 37.69999999999999574 ) ) ;
#172 = DATE_AND_TIME ( #46, #103 ) ;
#173 = AXIS2_PLACEMENT_3D ( 'NONE', #11, #151, #81 ) ;
#174 = EDGE_CURVE ( 'NONE', #141, #141, #75, .T. ) ;
#175 = CALENDAR_DATE ( 2021, 28, 10 ) ;
#176 = EDGE_LOOP ( 'NONE', ( #162 ) ) ;
#177 = APPROVAL_ROLE ( '' ) ;
#178 = ORIENTED_EDGE ( 'NONE', *, *, #49, .T. ) ;
#179 = AXIS2_PLACEMENT_3D ( 'NONE', #80, #127, #96 ) ;
#180 = EDGE_LOOP ( 'NONE', ( #74 ) ) ;
#181 = DIRECTION ( 'NONE',  ( -4.275831445896958607E-31, -1.000000000000000000, -1.224646799147353207E-16 ) ) ;
#182 = PRODUCT ( '963126', '963126', '', ( #199 ) ) ;
#183 = PRODUCT_RELATED_PRODUCT_CATEGORY ( 'detail', '', ( #182 ) ) ;
#184 = LOCAL_TIME ( 11, 23, 26.00000000000000000, #197 ) ;
#185 = CYLINDRICAL_SURFACE ( 'NONE', #17, 1.399999999999999911 ) ;
#186 = CONICAL_SURFACE ( 'NONE', #131, 1.499999999999998668, 0.2617993877991502405 ) ;
#187 = CARTESIAN_POINT ( 'NONE',  ( 0.0000000000000000000, 0.0000000000000000000, 0.0000000000000000000 ) ) ;
#188 = DIRECTION ( 'NONE',  ( -3.491481338843133355E-15, 1.224646799147353207E-16, -1.000000000000000000 ) ) ;
#189 = CC_DESIGN_PERSON_AND_ORGANIZATION_ASSIGNMENT ( #34, #212, ( #201 ) ) ;
#190 = CARTESIAN_POINT ( 'NONE',  ( 5.716673999651422336E-14, 1.499999999999996669, 16.37320508075688252 ) ) ;
#191 = FACE_OUTER_BOUND ( 'NONE', #216, .T. ) ;
#192 =( NAMED_UNIT ( * ) PLANE_ANGLE_UNIT ( ) SI_UNIT ( $, .RADIAN. ) );
#193 = APPROVAL_DATE_TIME ( #172, #132 ) ;
#194 = PERSON_AND_ORGANIZATION ( #158, #33 ) ;
#195 = AXIS2_PLACEMENT_3D ( 'NONE', #98, #67, #58 ) ;
#196 = EDGE_LOOP ( 'NONE', ( #122 ) ) ;
#197 = COORDINATED_UNIVERSAL_TIME_OFFSET ( 1, 0, .AHEAD. ) ;
#198 = ADVANCED_FACE ( 'NONE', ( #137 ), #133, .F. ) ;
#199 = MECHANICAL_CONTEXT ( 'NONE', #145, 'mechanical' ) ;
#200 = DIRECTION ( 'NONE',  ( 3.491481338843133355E-15, -1.224646799147353207E-16, 1.000000000000000000 ) ) ;
#201 = PRODUCT_DEFINITION_FORMATION_WITH_SPECIFIED_SOURCE ( 'ANY', '', #182, .NOT_KNOWN. ) ;
#202 = PLANE ( 'NONE',  #57 ) ;
#203 = CIRCLE ( 'NONE', #51, 1.399999999999999911 ) ;
#204 = CC_DESIGN_PERSON_AND_ORGANIZATION_ASSIGNMENT ( #120, #88, ( #97 ) ) ;
#205 = CARTESIAN_POINT ( 'NONE',  ( 5.586370142149013368E-14, 1.124819836996388416E-32, 16.00000000000000000 ) ) ;
#206 = DIRECTION ( 'NONE',  ( -3.491481338843133355E-15, 1.224646799147353207E-16, -1.000000000000000000 ) ) ;
#207 = DIRECTION ( 'NONE',  ( 0.0000000000000000000, 1.000000000000000000, 0.0000000000000000000 ) ) ;
#208 = DIRECTION ( 'NONE',  ( 4.275831445896958607E-31, 1.000000000000000000, 1.224646799147353207E-16 ) ) ;
#209 = APPROVAL_ROLE ( '' ) ;
#210 = CC_DESIGN_DATE_AND_TIME_ASSIGNMENT ( #19, #157, ( #97 ) ) ;
#211 = CONICAL_SURFACE ( 'NONE', #179, 1.499999999999995559, 1.221730476396026388 ) ;
#212 = PERSON_AND_ORGANIZATION_ROLE ( 'design_supplier' ) ;
#213 = APPROVAL_PERSON_ORGANIZATION ( #87, #132, #177 ) ;
#214 = ADVANCED_FACE ( 'NONE', ( #30, #68 ), #161, .T. ) ;
#215 = DATE_AND_TIME ( #128, #184 ) ;
#216 = EDGE_LOOP ( 'NONE', ( #144 ) ) ;
#217 = FACE_OUTER_BOUND ( 'NONE', #176, .T. ) ;
#218 = LOCAL_TIME ( 11, 23, 26.00000000000000000, #154 ) ;
#219 = CARTESIAN_POINT ( 'NONE',  ( 5.716673999651422336E-14, -2.013562871959598529E-15, 16.37320508075688252 ) ) ;
#220 = DIRECTION ( 'NONE',  ( -3.491481338843133355E-15, 1.224646799147353207E-16, -1.000000000000000000 ) ) ;
#221 = CIRCLE ( 'NONE', #195, 1.399999999999999911 ) ;
#222 = DIRECTION ( 'NONE',  ( 3.491481338843133355E-15, -1.224646799147353207E-16, 1.000000000000000000 ) ) ;
#223 = CARTESIAN_POINT ( 'NONE',  ( 1.326762908760390423E-13, 1.199999999999995293, 38.00000000000000000 ) ) ;
ENDSEC;
END-ISO-10303-21;
