ISO-10303-21;
HEADER;
FILE_DESCRIPTION (( 'STEP AP203' ),
    '1' );
FILE_NAME ('963125.step',
    '2021-10-28T09:23:26',
    ( '' ),
    ( '' ),
    'SwSTEP 2.0',
    'SolidWorks 2019',
    '' );
FILE_SCHEMA (( 'CONFIG_CONTROL_DESIGN' ));
ENDSEC;

DATA;
#1 = FACE_OUTER_BOUND ( 'NONE', #185, .T. ) ;
#2 = CONICAL_SURFACE ( 'NONE', #195, 1.199999999999999956, 0.7853981633974453924 ) ;
#3 = PLANE ( 'NONE',  #119 ) ;
#4 =( GEOMETRIC_REPRESENTATION_CONTEXT ( 3 ) GLOBAL_UNCERTAINTY_ASSIGNED_CONTEXT ( ( #84 ) ) GLOBAL_UNIT_ASSIGNED_CONTEXT ( ( #212, #28, #149 ) ) REPRESENTATION_CONTEXT ( 'NONE', 'WORKASPACE' ) );
#5 = DIRECTION ( 'NONE',  ( -3.491481338843133355E-15, 1.229791517316362731E-16, -1.000000000000000000 ) ) ;
#6 = FACE_OUTER_BOUND ( 'NONE', #188, .T. ) ;
#7 = PERSON_AND_ORGANIZATION ( #98, #161 ) ;
#8 = DATE_TIME_ROLE ( 'classification_date' ) ;
#9 = CALENDAR_DATE ( 2021, 28, 10 ) ;
#10 = CC_DESIGN_PERSON_AND_ORGANIZATION_ASSIGNMENT ( #182, #64, ( #43 ) ) ;
#11 = AXIS2_PLACEMENT_3D ( 'NONE', #77, #131, #156 ) ;
#12 = ORIENTED_EDGE ( 'NONE', *, *, #90, .T. ) ;
#13 = CC_DESIGN_APPROVAL ( #176, ( #83 ) ) ;
#14 = APPROVAL_DATE_TIME ( #187, #201 ) ;
#15 = EDGE_LOOP ( 'NONE', ( #31 ) ) ;
#16 = DIRECTION ( 'NONE',  ( -3.491481338843133355E-15, 1.229791517316362731E-16, -1.000000000000000000 ) ) ;
#17 = FACE_BOUND ( 'NONE', #217, .T. ) ;
#18 = DIRECTION ( 'NONE',  ( -3.491481338843133355E-15, 1.224646799147353207E-16, -1.000000000000000000 ) ) ;
#19 = CIRCLE ( 'NONE', #96, 1.499999999999998668 ) ;
#20 = DIRECTION ( 'NONE',  ( 0.0000000000000000000, 1.000000000000000000, 0.0000000000000000000 ) ) ;
#21 = DIRECTION ( 'NONE',  ( -3.491481338843133355E-15, 1.224646799147353207E-16, -1.000000000000000000 ) ) ;
#22 = CC_DESIGN_PERSON_AND_ORGANIZATION_ASSIGNMENT ( #183, #214, ( #83 ) ) ;
#23 = APPROVAL_STATUS ( 'not_yet_approved' ) ;
#24 = MANIFOLD_SOLID_BREP ( 'Corps-Déplacer/Copier1[1]', #69 ) ;
#25 = APPLICATION_PROTOCOL_DEFINITION ( 'international standard', 'config_control_design', 1994, #170 ) ;
#26 = CC_DESIGN_APPROVAL ( #201, ( #66 ) ) ;
#27 = CARTESIAN_POINT ( 'NONE',  ( 5.781825928402629343E-14, 1.499999999999996669, 16.55980762113532734 ) ) ;
#28 =( NAMED_UNIT ( * ) PLANE_ANGLE_UNIT ( ) SI_UNIT ( $, .RADIAN. ) );
#29 = PERSON_AND_ORGANIZATION ( #98, #161 ) ;
#30 = AXIS2_PLACEMENT_3D ( 'NONE', #190, #193, #112 ) ;
#31 = ORIENTED_EDGE ( 'NONE', *, *, #192, .T. ) ;
#32 = ORIENTED_EDGE ( 'NONE', *, *, #63, .F. ) ;
#33 = EDGE_LOOP ( 'NONE', ( #125 ) ) ;
#34 = CIRCLE ( 'NONE', #186, 1.199999999999999956 ) ;
#35 = EDGE_CURVE ( 'NONE', #173, #173, #203, .T. ) ;
#36 = CARTESIAN_POINT ( 'NONE',  ( 5.781825928402629343E-14, -2.036511094086308003E-15, 16.55980762113532734 ) ) ;
#37 = CARTESIAN_POINT ( 'NONE',  ( 5.781825928402629343E-14, -2.036511094086308003E-15, 16.55980762113532734 ) ) ;
#38 = CALENDAR_DATE ( 2021, 28, 10 ) ;
#39 = CARTESIAN_POINT ( 'NONE',  ( 1.715573629127014303E-15, -1.350000000000000089, 0.4913598162593794672 ) ) ;
#40 = VERTEX_POINT ( 'NONE', #191 ) ;
#41 = AXIS2_PLACEMENT_3D ( 'NONE', #72, #174, #177 ) ;
#42 = CARTESIAN_POINT ( 'NONE',  ( 1.906192921252232855E-15, -6.686024735685322183E-17, 0.5459553513993090634 ) ) ;
#43 = PRODUCT_DEFINITION ( 'UNKNOWN', '', #83, #51 ) ;
#44 = CARTESIAN_POINT ( 'NONE',  ( 0.0000000000000000000, 0.0000000000000000000, 0.0000000000000000000 ) ) ;
#45 = DIRECTION ( 'NONE',  ( 1.000000000000000000, 0.0000000000000000000, 0.0000000000000000000 ) ) ;
#46 = AXIS2_PLACEMENT_3D ( 'NONE', #132, #210, #78 ) ;
#47 = CC_DESIGN_SECURITY_CLASSIFICATION ( #66, ( #83 ) ) ;
#48 = APPROVAL_ROLE ( '' ) ;
#49 = CALENDAR_DATE ( 2021, 28, 10 ) ;
#50 = CC_DESIGN_DATE_AND_TIME_ASSIGNMENT ( #99, #135, ( #43 ) ) ;
#51 = DESIGN_CONTEXT ( 'detailed design', #107, 'design' ) ;
#52 = DIRECTION ( 'NONE',  ( 0.0000000000000000000, 1.000000000000000000, 0.0000000000000000000 ) ) ;
#53 = EDGE_LOOP ( 'NONE', ( #150 ) ) ;
#54 = LOCAL_TIME ( 11, 23, 26.00000000000000000, #118 ) ;
#55 = DIRECTION ( 'NONE',  ( -5.135813185032644414E-31, -1.000000000000000000, -1.445602896647343601E-16 ) ) ;
#56 = FACE_OUTER_BOUND ( 'NONE', #169, .T. ) ;
#57 = CARTESIAN_POINT ( 'NONE',  ( 5.586370142149013368E-14, 1.349999999999998090, 16.00000000000000000 ) ) ;
#58 = FACE_OUTER_BOUND ( 'NONE', #33, .T. ) ;
#59 = CARTESIAN_POINT ( 'NONE',  ( 1.326762908760390423E-13, -4.653657836759941941E-15, 38.00000000000000000 ) ) ;
#60 = AXIS2_PLACEMENT_3D ( 'NONE', #140, #202, #52 ) ;
#61 = COORDINATED_UNIVERSAL_TIME_OFFSET ( 1, 0, .AHEAD. ) ;
#62 = PERSON_AND_ORGANIZATION ( #98, #161 ) ;
#63 = EDGE_CURVE ( 'NONE', #88, #88, #179, .T. ) ;
#64 = PERSON_AND_ORGANIZATION_ROLE ( 'creator' ) ;
#65 = AXIS2_PLACEMENT_3D ( 'NONE', #42, #93, #55 ) ;
#66 = SECURITY_CLASSIFICATION ( '', '', #145 ) ;
#67 = ADVANCED_BREP_SHAPE_REPRESENTATION ( '963125', ( #24, #104, #124 ), #4 ) ;
#68 = DATE_AND_TIME ( #178, #54 ) ;
#69 = CLOSED_SHELL ( 'NONE', ( #76, #134, #101, #163, #86 ) ) ;
#70 = LOCAL_TIME ( 11, 23, 26.00000000000000000, #136 ) ;
#71 = DIRECTION ( 'NONE',  ( -4.279844320860524021E-31, -1.000000000000000000, -1.606225440719265627E-16 ) ) ;
#72 = CARTESIAN_POINT ( 'NONE',  ( 0.0000000000000000000, 0.0000000000000000000, 0.0000000000000000000 ) ) ;
#73 = FACE_OUTER_BOUND ( 'NONE', #53, .T. ) ;
#74 = AXIS2_PLACEMENT_3D ( 'NONE', #141, #21, #194 ) ;
#75 = PLANE ( 'NONE',  #46 ) ;
#76 = ADVANCED_FACE ( 'NONE', ( #6, #73 ), #113, .T. ) ;
#77 = CARTESIAN_POINT ( 'NONE',  ( 0.0000000000000000000, 0.0000000000000000000, 0.0000000000000000000 ) ) ;
#78 = DIRECTION ( 'NONE',  ( 4.275831445896958607E-31, 1.000000000000000000, 1.224646799147353207E-16 ) ) ;
#79 = DATE_AND_TIME ( #49, #70 ) ;
#80 = PERSON_AND_ORGANIZATION ( #98, #161 ) ;
#81 = PERSON_AND_ORGANIZATION_ROLE ( 'design_supplier' ) ;
#82 = EDGE_LOOP ( 'NONE', ( #204 ) ) ;
#83 = PRODUCT_DEFINITION_FORMATION_WITH_SPECIFIED_SOURCE ( 'ANY', '', #164, .NOT_KNOWN. ) ;
#84 = UNCERTAINTY_MEASURE_WITH_UNIT (LENGTH_MEASURE( 1.000000000000000082E-05 ), #212, 'distance_accuracy_value', 'NONE');
#85 = CARTESIAN_POINT ( 'NONE',  ( 1.715573629127014895E-15, -6.017422262116807714E-17, 0.4913598162593796892 ) ) ;
#86 = ADVANCED_FACE ( 'NONE', ( #87 ), #3, .F. ) ;
#87 = FACE_OUTER_BOUND ( 'NONE', #82, .T. ) ;
#88 = VERTEX_POINT ( 'NONE', #57 ) ;
#89 = CARTESIAN_POINT ( 'NONE',  ( 5.586370142149013368E-14, -1.967666427706180764E-15, 16.00000000000000000 ) ) ;
#90 = EDGE_CURVE ( 'NONE', #159, #159, #115, .T. ) ;
#91 = LOCAL_TIME ( 11, 23, 26.00000000000000000, #184 ) ;
#92 = FACE_OUTER_BOUND ( 'NONE', #103, .T. ) ;
#93 = DIRECTION ( 'NONE',  ( 3.491481338843133355E-15, -1.224646799147353207E-16, 1.000000000000000000 ) ) ;
#94 = DATE_AND_TIME ( #9, #221 ) ;
#95 = APPROVAL ( #100, 'UNSPECIFIED' ) ;
#96 = AXIS2_PLACEMENT_3D ( 'NONE', #36, #16, #110 ) ;
#97 = PERSON_AND_ORGANIZATION_ROLE ( 'classification_officer' ) ;
#98 = PERSON ( 'UNSPECIFIED', 'UNSPECIFIED', 'UNSPECIFIED', ('UNSPECIFIED'), ('UNSPECIFIED'), ('UNSPECIFIED') ) ;
#99 = DATE_AND_TIME ( #133, #181 ) ;
#100 = APPROVAL_STATUS ( 'not_yet_approved' ) ;
#101 = ADVANCED_FACE ( 'NONE', ( #144 ), #75, .F. ) ;
#102 = CONICAL_SURFACE ( 'NONE', #220, 1.499999999999998668, 0.2617993877991496299 ) ;
#103 = EDGE_LOOP ( 'NONE', ( #215 ) ) ;
#104 = MANIFOLD_SOLID_BREP ( 'Corps-Déplacer/Copier1[2]', #148 ) ;
#105 = EDGE_LOOP ( 'NONE', ( #168 ) ) ;
#106 = APPROVAL_PERSON_ORGANIZATION ( #80, #201, #123 ) ;
#107 = APPLICATION_CONTEXT ( 'configuration controlled 3d designs of mechanical parts and assemblies' ) ;
#108 = ORIENTED_EDGE ( 'NONE', *, *, #213, .F. ) ;
#109 = EDGE_CURVE ( 'NONE', #40, #40, #167, .T. ) ;
#110 = DIRECTION ( 'NONE',  ( 0.0000000000000000000, 1.000000000000000000, 0.0000000000000000000 ) ) ;
#111 = APPROVAL_PERSON_ORGANIZATION ( #62, #95, #48 ) ;
#112 = DIRECTION ( 'NONE',  ( -4.275831445896958607E-31, -1.000000000000000000, -1.224646799147353207E-16 ) ) ;
#113 = CYLINDRICAL_SURFACE ( 'NONE', #11, 1.499999999999998668 ) ;
#114 = VERTEX_POINT ( 'NONE', #175 ) ;
#115 = CIRCLE ( 'NONE', #143, 1.350000000000000089 ) ;
#116 = DIRECTION ( 'NONE',  ( 0.0000000000000000000, 1.000000000000000000, 0.0000000000000000000 ) ) ;
#117 = APPLICATION_PROTOCOL_DEFINITION ( 'international standard', 'config_control_design', 1994, #107 ) ;
#118 = COORDINATED_UNIVERSAL_TIME_OFFSET ( 1, 0, .AHEAD. ) ;
#119 = AXIS2_PLACEMENT_3D ( 'NONE', #206, #171, #160 ) ;
#120 = APPROVAL_DATE_TIME ( #79, #95 ) ;
#121 = ADVANCED_FACE ( 'NONE', ( #209, #128 ), #207, .T. ) ;
#122 = APPROVAL_DATE_TIME ( #94, #176 ) ;
#123 = APPROVAL_ROLE ( '' ) ;
#124 = AXIS2_PLACEMENT_3D ( 'NONE', #44, #147, #45 ) ;
#125 = ORIENTED_EDGE ( 'NONE', *, *, #90, .F. ) ;
#126 = CC_DESIGN_PERSON_AND_ORGANIZATION_ASSIGNMENT ( #199, #200, ( #164 ) ) ;
#127 = ORIENTED_EDGE ( 'NONE', *, *, #109, .F. ) ;
#128 = FACE_OUTER_BOUND ( 'NONE', #105, .T. ) ;
#129 = DIRECTION ( 'NONE',  ( 0.0000000000000000000, 1.000000000000000000, 0.0000000000000000000 ) ) ;
#130 = CARTESIAN_POINT ( 'NONE',  ( 5.586370142149013368E-14, 1.349999999999998090, 16.00000000000000000 ) ) ;
#131 = DIRECTION ( 'NONE',  ( -3.491481338843133355E-15, 1.224646799147353207E-16, -1.000000000000000000 ) ) ;
#132 = CARTESIAN_POINT ( 'NONE',  ( 1.326762908760390423E-13, 8.998558695971077224E-33, 38.00000000000000000 ) ) ;
#133 = CALENDAR_DATE ( 2021, 28, 10 ) ;
#134 = ADVANCED_FACE ( 'NONE', ( #1, #142 ), #2, .T. ) ;
#135 = DATE_TIME_ROLE ( 'creation_date' ) ;
#136 = COORDINATED_UNIVERSAL_TIME_OFFSET ( 1, 0, .AHEAD. ) ;
#137 = APPROVAL_ROLE ( '' ) ;
#138 = CC_DESIGN_APPROVAL ( #95, ( #43 ) ) ;
#139 = APPROVAL_STATUS ( 'not_yet_approved' ) ;
#140 = CARTESIAN_POINT ( 'NONE',  ( 5.586370142149013368E-14, -1.967666427706180764E-15, 16.00000000000000000 ) ) ;
#141 = CARTESIAN_POINT ( 'NONE',  ( 1.316288464743861212E-13, -4.616918432785521081E-15, 37.69999999999999574 ) ) ;
#142 = FACE_BOUND ( 'NONE', #15, .T. ) ;
#143 = AXIS2_PLACEMENT_3D ( 'NONE', #89, #5, #116 ) ;
#144 = FACE_OUTER_BOUND ( 'NONE', #222, .T. ) ;
#145 = SECURITY_CLASSIFICATION_LEVEL ( 'unclassified' ) ;
#146 = PRODUCT_DEFINITION_SHAPE ( 'NONE', 'NONE',  #43 ) ;
#147 = DIRECTION ( 'NONE',  ( 0.0000000000000000000, 0.0000000000000000000, 1.000000000000000000 ) ) ;
#148 = CLOSED_SHELL ( 'NONE', ( #216, #121, #172 ) ) ;
#149 =( NAMED_UNIT ( * ) SI_UNIT ( $, .STERADIAN. ) SOLID_ANGLE_UNIT ( ) );
#150 = ORIENTED_EDGE ( 'NONE', *, *, #109, .T. ) ;
#151 = EDGE_LOOP ( 'NONE', ( #12 ) ) ;
#152 = DIRECTION ( 'NONE',  ( -3.491481338843133355E-15, 1.224646799147353207E-16, -1.000000000000000000 ) ) ;
#153 = ORIENTED_EDGE ( 'NONE', *, *, #192, .F. ) ;
#154 = AXIS2_PLACEMENT_3D ( 'NONE', #85, #152, #71 ) ;
#155 = PLANE ( 'NONE',  #30 ) ;
#156 = DIRECTION ( 'NONE',  ( 4.275831445896958607E-31, 1.000000000000000000, 1.224646799147353207E-16 ) ) ;
#157 = DIRECTION ( 'NONE',  ( 3.491481338843133355E-15, -1.229791517316362731E-16, 1.000000000000000000 ) ) ;
#158 = CONICAL_SURFACE ( 'NONE', #65, 1.499999999999995559, 1.221730476396026388 ) ;
#159 = VERTEX_POINT ( 'NONE', #130 ) ;
#160 = DIRECTION ( 'NONE',  ( -4.275831445896958607E-31, -1.000000000000000000, -1.224646799147353207E-16 ) ) ;
#161 = ORGANIZATION ( 'UNSPECIFIED', 'UNSPECIFIED', '' ) ;
#162 = COORDINATED_UNIVERSAL_TIME_OFFSET ( 1, 0, .AHEAD. ) ;
#163 = ADVANCED_FACE ( 'NONE', ( #17, #56 ), #102, .T. ) ;
#164 = PRODUCT ( '963125', '963125', '', ( #211 ) ) ;
#165 = CC_DESIGN_PERSON_AND_ORGANIZATION_ASSIGNMENT ( #29, #97, ( #66 ) ) ;
#166 = ORIENTED_EDGE ( 'NONE', *, *, #213, .T. ) ;
#167 = CIRCLE ( 'NONE', #74, 1.499999999999999778 ) ;
#168 = ORIENTED_EDGE ( 'NONE', *, *, #35, .F. ) ;
#169 = EDGE_LOOP ( 'NONE', ( #166 ) ) ;
#170 = APPLICATION_CONTEXT ( 'configuration controlled 3d designs of mechanical parts and assemblies' ) ;
#171 = DIRECTION ( 'NONE',  ( 3.491481338843133355E-15, -1.224646799147353207E-16, 1.000000000000000000 ) ) ;
#172 = ADVANCED_FACE ( 'NONE', ( #92 ), #158, .T. ) ;
#173 = VERTEX_POINT ( 'NONE', #39 ) ;
#174 = DIRECTION ( 'NONE',  ( -3.491481338843133355E-15, 1.229791517316362731E-16, -1.000000000000000000 ) ) ;
#175 = CARTESIAN_POINT ( 'NONE',  ( 1.326762908760390423E-13, 1.199999999999995293, 38.00000000000000000 ) ) ;
#176 = APPROVAL ( #23, 'UNSPECIFIED' ) ;
#177 = DIRECTION ( 'NONE',  ( 4.293794133377661370E-31, 1.000000000000000000, 1.229791517316362731E-16 ) ) ;
#178 = CALENDAR_DATE ( 2021, 28, 10 ) ;
#179 = CIRCLE ( 'NONE', #60, 1.350000000000000089 ) ;
#180 = CC_DESIGN_PERSON_AND_ORGANIZATION_ASSIGNMENT ( #7, #81, ( #83 ) ) ;
#181 = LOCAL_TIME ( 11, 23, 26.00000000000000000, #61 ) ;
#182 = PERSON_AND_ORGANIZATION ( #98, #161 ) ;
#183 = PERSON_AND_ORGANIZATION ( #98, #161 ) ;
#184 = COORDINATED_UNIVERSAL_TIME_OFFSET ( 1, 0, .AHEAD. ) ;
#185 = EDGE_LOOP ( 'NONE', ( #127 ) ) ;
#186 = AXIS2_PLACEMENT_3D ( 'NONE', #189, #223, #129 ) ;
#187 = DATE_AND_TIME ( #38, #91 ) ;
#188 = EDGE_LOOP ( 'NONE', ( #108 ) ) ;
#189 = CARTESIAN_POINT ( 'NONE',  ( 1.326762908760390423E-13, -4.653657836759941941E-15, 38.00000000000000000 ) ) ;
#190 = CARTESIAN_POINT ( 'NONE',  ( 5.586370142149013368E-14, 1.124819836996388416E-32, 16.00000000000000000 ) ) ;
#191 = CARTESIAN_POINT ( 'NONE',  ( 1.316288464743861212E-13, 1.499999999999995337, 37.69999999999999574 ) ) ;
#192 = EDGE_CURVE ( 'NONE', #114, #114, #34, .T. ) ;
#193 = DIRECTION ( 'NONE',  ( 3.491481338843133355E-15, -1.224646799147353207E-16, 1.000000000000000000 ) ) ;
#194 = DIRECTION ( 'NONE',  ( 0.0000000000000000000, 1.000000000000000000, 0.0000000000000000000 ) ) ;
#195 = AXIS2_PLACEMENT_3D ( 'NONE', #59, #18, #20 ) ;
#196 = PERSON_AND_ORGANIZATION ( #98, #161 ) ;
#197 = VERTEX_POINT ( 'NONE', #27 ) ;
#198 = PRODUCT_RELATED_PRODUCT_CATEGORY ( 'detail', '', ( #164 ) ) ;
#199 = PERSON_AND_ORGANIZATION ( #98, #161 ) ;
#200 = PERSON_AND_ORGANIZATION_ROLE ( 'design_owner' ) ;
#201 = APPROVAL ( #139, 'UNSPECIFIED' ) ;
#202 = DIRECTION ( 'NONE',  ( -3.491481338843133355E-15, 1.229791517316362731E-16, -1.000000000000000000 ) ) ;
#203 = CIRCLE ( 'NONE', #154, 1.350000000000000089 ) ;
#204 = ORIENTED_EDGE ( 'NONE', *, *, #63, .T. ) ;
#205 = DIRECTION ( 'NONE',  ( 0.0000000000000000000, -1.000000000000000000, 0.0000000000000000000 ) ) ;
#206 = CARTESIAN_POINT ( 'NONE',  ( 5.586370142149013368E-14, 1.124819836996388416E-32, 16.00000000000000000 ) ) ;
#207 = CYLINDRICAL_SURFACE ( 'NONE', #41, 1.350000000000000089 ) ;
#208 = APPROVAL_PERSON_ORGANIZATION ( #196, #176, #137 ) ;
#209 = FACE_OUTER_BOUND ( 'NONE', #151, .T. ) ;
#210 = DIRECTION ( 'NONE',  ( -3.491481338843133355E-15, 1.224646799147353207E-16, -1.000000000000000000 ) ) ;
#211 = MECHANICAL_CONTEXT ( 'NONE', #170, 'mechanical' ) ;
#212 =( LENGTH_UNIT ( ) NAMED_UNIT ( * ) SI_UNIT ( .MILLI., .METRE. ) );
#213 = EDGE_CURVE ( 'NONE', #197, #197, #19, .T. ) ;
#214 = PERSON_AND_ORGANIZATION_ROLE ( 'creator' ) ;
#215 = ORIENTED_EDGE ( 'NONE', *, *, #35, .T. ) ;
#216 = ADVANCED_FACE ( 'NONE', ( #58 ), #155, .T. ) ;
#217 = EDGE_LOOP ( 'NONE', ( #32 ) ) ;
#218 = SHAPE_DEFINITION_REPRESENTATION ( #146, #67 ) ;
#219 = CC_DESIGN_DATE_AND_TIME_ASSIGNMENT ( #68, #8, ( #66 ) ) ;
#220 = AXIS2_PLACEMENT_3D ( 'NONE', #37, #157, #205 ) ;
#221 = LOCAL_TIME ( 11, 23, 26.00000000000000000, #162 ) ;
#222 = EDGE_LOOP ( 'NONE', ( #153 ) ) ;
#223 = DIRECTION ( 'NONE',  ( -3.491481338843133355E-15, 1.224646799147353207E-16, -1.000000000000000000 ) ) ;
ENDSEC;
END-ISO-10303-21;
