ISO-10303-21;
HEADER;
FILE_DESCRIPTION (( 'STEP AP203' ),
    '1' );
FILE_NAME ('963124.step',
    '2021-10-28T09:23:25',
    ( '' ),
    ( '' ),
    'SwSTEP 2.0',
    'SolidWorks 2019',
    '' );
FILE_SCHEMA (( 'CONFIG_CONTROL_DESIGN' ));
ENDSEC;

DATA;
#1 = ADVANCED_BREP_SHAPE_REPRESENTATION ( '963124', ( #16, #90, #193 ), #125 ) ;
#2 = PLANE ( 'NONE',  #111 ) ;
#3 = AXIS2_PLACEMENT_3D ( 'NONE', #65, #28, #167 ) ;
#4 = EDGE_LOOP ( 'NONE', ( #57 ) ) ;
#5 = EDGE_LOOP ( 'NONE', ( #39 ) ) ;
#6 = DIRECTION ( 'NONE',  ( -3.491481338843133355E-15, 1.229791517316362731E-16, -1.000000000000000000 ) ) ;
#7 = DIRECTION ( 'NONE',  ( 0.0000000000000000000, 1.000000000000000000, 0.0000000000000000000 ) ) ;
#8 = DIRECTION ( 'NONE',  ( 0.0000000000000000000, 1.000000000000000000, 0.0000000000000000000 ) ) ;
#9 = APPROVAL_PERSON_ORGANIZATION ( #13, #121, #154 ) ;
#10 = PLANE ( 'NONE',  #159 ) ;
#11 = VERTEX_POINT ( 'NONE', #212 ) ;
#12 = PERSON_AND_ORGANIZATION_ROLE ( 'creator' ) ;
#13 = PERSON_AND_ORGANIZATION ( #40, #48 ) ;
#14 = APPROVAL_PERSON_ORGANIZATION ( #187, #123, #101 ) ;
#15 = PERSON_AND_ORGANIZATION ( #40, #48 ) ;
#16 = MANIFOLD_SOLID_BREP ( 'Corps-Déplacer/Copier1[1]', #156 ) ;
#17 = DIRECTION ( 'NONE',  ( 1.000000000000000000, 0.0000000000000000000, 0.0000000000000000000 ) ) ;
#18 = ADVANCED_FACE ( 'NONE', ( #71 ), #2, .F. ) ;
#19 = PRODUCT_DEFINITION_SHAPE ( 'NONE', 'NONE',  #191 ) ;
#20 = CIRCLE ( 'NONE', #59, 1.499999999999999778 ) ;
#21 = ORIENTED_EDGE ( 'NONE', *, *, #210, .F. ) ;
#22 = AXIS2_PLACEMENT_3D ( 'NONE', #184, #149, #66 ) ;
#23 = APPLICATION_CONTEXT ( 'configuration controlled 3d designs of mechanical parts and assemblies' ) ;
#24 = COORDINATED_UNIVERSAL_TIME_OFFSET ( 1, 0, .AHEAD. ) ;
#25 = EDGE_LOOP ( 'NONE', ( #143 ) ) ;
#26 = CARTESIAN_POINT ( 'NONE',  ( 5.237222008264700033E-14, 1.299999999999998268, 15.00000000000000000 ) ) ;
#27 = CONICAL_SURFACE ( 'NONE', #200, 1.199999999999999956, 0.7853981633974453924 ) ;
#28 = DIRECTION ( 'NONE',  ( -3.491481338843133355E-15, 1.224646799147353207E-16, -1.000000000000000000 ) ) ;
#29 = FACE_OUTER_BOUND ( 'NONE', #70, .T. ) ;
#30 = DIRECTION ( 'NONE',  ( 4.293794133377662246E-31, 1.000000000000000000, 1.229791517316362731E-16 ) ) ;
#31 = AXIS2_PLACEMENT_3D ( 'NONE', #100, #150, #8 ) ;
#32 = CYLINDRICAL_SURFACE ( 'NONE', #95, 1.300000000000000044 ) ;
#33 = PERSON_AND_ORGANIZATION_ROLE ( 'creator' ) ;
#34 = DATE_AND_TIME ( #116, #207 ) ;
#35 = PERSON_AND_ORGANIZATION ( #40, #48 ) ;
#36 = EDGE_LOOP ( 'NONE', ( #206 ) ) ;
#37 = CALENDAR_DATE ( 2021, 28, 10 ) ;
#38 = EDGE_LOOP ( 'NONE', ( #91 ) ) ;
#39 = ORIENTED_EDGE ( 'NONE', *, *, #106, .F. ) ;
#40 = PERSON ( 'UNSPECIFIED', 'UNSPECIFIED', 'UNSPECIFIED', ('UNSPECIFIED'), ('UNSPECIFIED'), ('UNSPECIFIED') ) ;
#41 = FACE_OUTER_BOUND ( 'NONE', #158, .T. ) ;
#42 = CC_DESIGN_APPROVAL ( #121, ( #99 ) ) ;
#43 = CARTESIAN_POINT ( 'NONE',  ( 5.237222008264700033E-14, -1.844687275974544269E-15, 15.00000000000000000 ) ) ;
#44 = CC_DESIGN_DATE_AND_TIME_ASSIGNMENT ( #69, #205, ( #99 ) ) ;
#45 = DIRECTION ( 'NONE',  ( 3.491481338843133355E-15, -1.224646799147353207E-16, 1.000000000000000000 ) ) ;
#46 = FACE_OUTER_BOUND ( 'NONE', #4, .T. ) ;
#47 = ADVANCED_FACE ( 'NONE', ( #56 ), #127, .F. ) ;
#48 = ORGANIZATION ( 'UNSPECIFIED', 'UNSPECIFIED', '' ) ;
#49 = COORDINATED_UNIVERSAL_TIME_OFFSET ( 1, 0, .AHEAD. ) ;
#50 =( NAMED_UNIT ( * ) SI_UNIT ( $, .STERADIAN. ) SOLID_ANGLE_UNIT ( ) );
#51 = APPROVAL_DATE_TIME ( #34, #202 ) ;
#52 = CONICAL_SURFACE ( 'NONE', #22, 1.499999999999998668, 0.2617993877991504625 ) ;
#53 = VERTEX_POINT ( 'NONE', #190 ) ;
#54 = APPLICATION_CONTEXT ( 'configuration controlled 3d designs of mechanical parts and assemblies' ) ;
#55 = EDGE_LOOP ( 'NONE', ( #180 ) ) ;
#56 = FACE_OUTER_BOUND ( 'NONE', #142, .T. ) ;
#57 = ORIENTED_EDGE ( 'NONE', *, *, #175, .F. ) ;
#58 = ORIENTED_EDGE ( 'NONE', *, *, #186, .T. ) ;
#59 = AXIS2_PLACEMENT_3D ( 'NONE', #169, #133, #78 ) ;
#60 = VERTEX_POINT ( 'NONE', #120 ) ;
#61 = ADVANCED_FACE ( 'NONE', ( #29, #216 ), #64, .T. ) ;
#62 = FACE_BOUND ( 'NONE', #5, .T. ) ;
#63 = CIRCLE ( 'NONE', #3, 1.300000000000000044 ) ;
#64 = CYLINDRICAL_SURFACE ( 'NONE', #129, 1.499999999999998446 ) ;
#65 = CARTESIAN_POINT ( 'NONE',  ( 1.652033865085273339E-15, -5.794554770927296317E-17, 0.4731613045460692502 ) ) ;
#66 = DIRECTION ( 'NONE',  ( 0.0000000000000000000, -1.000000000000000000, 0.0000000000000000000 ) ) ;
#67 = CC_DESIGN_APPROVAL ( #123, ( #214 ) ) ;
#68 = CALENDAR_DATE ( 2021, 28, 10 ) ;
#69 = DATE_AND_TIME ( #188, #141 ) ;
#70 = EDGE_LOOP ( 'NONE', ( #108 ) ) ;
#71 = FACE_OUTER_BOUND ( 'NONE', #55, .T. ) ;
#72 = CONICAL_SURFACE ( 'NONE', #211, 1.499999999999995559, 1.221730476396026388 ) ;
#73 = CC_DESIGN_APPROVAL ( #202, ( #191 ) ) ;
#74 = ADVANCED_FACE ( 'NONE', ( #183, #196 ), #32, .T. ) ;
#75 = VERTEX_POINT ( 'NONE', #109 ) ;
#76 = DIRECTION ( 'NONE',  ( 3.491481338843133355E-15, -1.224646799147353207E-16, 1.000000000000000000 ) ) ;
#77 = CC_DESIGN_SECURITY_CLASSIFICATION ( #99, ( #214 ) ) ;
#78 = DIRECTION ( 'NONE',  ( 0.0000000000000000000, 1.000000000000000000, 0.0000000000000000000 ) ) ;
#79 = DIRECTION ( 'NONE',  ( 0.0000000000000000000, 1.000000000000000000, 0.0000000000000000000 ) ) ;
#80 = PERSON_AND_ORGANIZATION_ROLE ( 'design_supplier' ) ;
#81 = CIRCLE ( 'NONE', #189, 1.199999999999999956 ) ;
#82 = APPROVAL_STATUS ( 'not_yet_approved' ) ;
#83 = CC_DESIGN_PERSON_AND_ORGANIZATION_ASSIGNMENT ( #102, #152, ( #99 ) ) ;
#84 = CALENDAR_DATE ( 2021, 28, 10 ) ;
#85 = APPROVAL_ROLE ( '' ) ;
#86 = APPLICATION_PROTOCOL_DEFINITION ( 'international standard', 'config_control_design', 1994, #23 ) ;
#87 = CIRCLE ( 'NONE', #31, 1.499999999999998668 ) ;
#88 = ADVANCED_FACE ( 'NONE', ( #41, #215 ), #27, .T. ) ;
#89 = ORIENTED_EDGE ( 'NONE', *, *, #106, .T. ) ;
#90 = MANIFOLD_SOLID_BREP ( 'Corps-Déplacer/Copier1[2]', #107 ) ;
#91 = ORIENTED_EDGE ( 'NONE', *, *, #103, .T. ) ;
#92 = LOCAL_TIME ( 11, 23, 25.00000000000000000, #24 ) ;
#93 = EDGE_LOOP ( 'NONE', ( #124 ) ) ;
#94 = CARTESIAN_POINT ( 'NONE',  ( 0.0000000000000000000, 0.0000000000000000000, 0.0000000000000000000 ) ) ;
#95 = AXIS2_PLACEMENT_3D ( 'NONE', #132, #195, #30 ) ;
#96 = DIRECTION ( 'NONE',  ( -4.275831445896958607E-31, -1.000000000000000000, -1.224646799147353207E-16 ) ) ;
#97 = DIRECTION ( 'NONE',  ( -3.491481338843133355E-15, 1.224646799147353207E-16, -1.000000000000000000 ) ) ;
#98 = CARTESIAN_POINT ( 'NONE',  ( 1.906192921252232855E-15, -6.686024735685322183E-17, 0.5459553513993090634 ) ) ;
#99 = SECURITY_CLASSIFICATION ( '', '', #221 ) ;
#100 = CARTESIAN_POINT ( 'NONE',  ( 5.497829723269520491E-14, -1.936480164481380982E-15, 15.74641016151376682 ) ) ;
#101 = APPROVAL_ROLE ( '' ) ;
#102 = PERSON_AND_ORGANIZATION ( #40, #48 ) ;
#103 = EDGE_CURVE ( 'NONE', #11, #11, #87, .T. ) ;
#104 = CARTESIAN_POINT ( 'NONE',  ( 0.0000000000000000000, 0.0000000000000000000, 0.0000000000000000000 ) ) ;
#105 = MECHANICAL_CONTEXT ( 'NONE', #54, 'mechanical' ) ;
#106 = EDGE_CURVE ( 'NONE', #75, #75, #136, .T. ) ;
#107 = CLOSED_SHELL ( 'NONE', ( #162, #74, #140 ) ) ;
#108 = ORIENTED_EDGE ( 'NONE', *, *, #103, .F. ) ;
#109 = CARTESIAN_POINT ( 'NONE',  ( 5.237222008264700033E-14, 1.299999999999998268, 15.00000000000000000 ) ) ;
#110 = DIRECTION ( 'NONE',  ( 0.0000000000000000000, 1.000000000000000000, 0.0000000000000000000 ) ) ;
#111 = AXIS2_PLACEMENT_3D ( 'NONE', #144, #122, #208 ) ;
#112 = CARTESIAN_POINT ( 'NONE',  ( 5.237222008264700033E-14, 1.124819836996388553E-32, 15.00000000000000000 ) ) ;
#113 = DIRECTION ( 'NONE',  ( -3.491481338843133355E-15, 1.224646799147353207E-16, -1.000000000000000000 ) ) ;
#114 = DIRECTION ( 'NONE',  ( -3.491481338843133355E-15, 1.229791517316362731E-16, -1.000000000000000000 ) ) ;
#115 = CIRCLE ( 'NONE', #182, 1.300000000000000266 ) ;
#116 = CALENDAR_DATE ( 2021, 28, 10 ) ;
#117 =( LENGTH_UNIT ( ) NAMED_UNIT ( * ) SI_UNIT ( .MILLI., .METRE. ) );
#118 = COORDINATED_UNIVERSAL_TIME_OFFSET ( 1, 0, .AHEAD. ) ;
#119 = DATE_AND_TIME ( #84, #163 ) ;
#120 = CARTESIAN_POINT ( 'NONE',  ( 1.326762908760390423E-13, 1.199999999999995293, 38.00000000000000000 ) ) ;
#121 = APPROVAL ( #82, 'UNSPECIFIED' ) ;
#122 = DIRECTION ( 'NONE',  ( -3.491481338843133355E-15, 1.224646799147353207E-16, -1.000000000000000000 ) ) ;
#123 = APPROVAL ( #155, 'UNSPECIFIED' ) ;
#124 = ORIENTED_EDGE ( 'NONE', *, *, #131, .T. ) ;
#125 =( GEOMETRIC_REPRESENTATION_CONTEXT ( 3 ) GLOBAL_UNCERTAINTY_ASSIGNED_CONTEXT ( ( #178 ) ) GLOBAL_UNIT_ASSIGNED_CONTEXT ( ( #117, #203, #50 ) ) REPRESENTATION_CONTEXT ( 'NONE', 'WORKASPACE' ) );
#126 = ADVANCED_FACE ( 'NONE', ( #62, #148 ), #52, .T. ) ;
#127 = PLANE ( 'NONE',  #204 ) ;
#128 = DIRECTION ( 'NONE',  ( 4.275831445896958607E-31, 1.000000000000000000, 1.224646799147353207E-16 ) ) ;
#129 = AXIS2_PLACEMENT_3D ( 'NONE', #94, #113, #128 ) ;
#130 = CARTESIAN_POINT ( 'NONE',  ( 1.326762908760390423E-13, -4.653657836759941941E-15, 38.00000000000000000 ) ) ;
#131 = EDGE_CURVE ( 'NONE', #147, #147, #63, .T. ) ;
#132 = CARTESIAN_POINT ( 'NONE',  ( 0.0000000000000000000, 0.0000000000000000000, 0.0000000000000000000 ) ) ;
#133 = DIRECTION ( 'NONE',  ( -3.491481338843133355E-15, 1.224646799147353207E-16, -1.000000000000000000 ) ) ;
#134 = PRODUCT_RELATED_PRODUCT_CATEGORY ( 'detail', '', ( #170 ) ) ;
#135 = APPLICATION_PROTOCOL_DEFINITION ( 'international standard', 'config_control_design', 1994, #54 ) ;
#136 = CIRCLE ( 'NONE', #153, 1.300000000000000266 ) ;
#137 = CC_DESIGN_PERSON_AND_ORGANIZATION_ASSIGNMENT ( #138, #33, ( #191 ) ) ;
#138 = PERSON_AND_ORGANIZATION ( #40, #48 ) ;
#139 = EDGE_LOOP ( 'NONE', ( #209 ) ) ;
#140 = ADVANCED_FACE ( 'NONE', ( #197 ), #72, .T. ) ;
#141 = LOCAL_TIME ( 11, 23, 25.00000000000000000, #172 ) ;
#142 = EDGE_LOOP ( 'NONE', ( #89 ) ) ;
#143 = ORIENTED_EDGE ( 'NONE', *, *, #131, .F. ) ;
#144 = CARTESIAN_POINT ( 'NONE',  ( 1.326762908760390423E-13, 8.998558695971077224E-33, 38.00000000000000000 ) ) ;
#145 = CC_DESIGN_PERSON_AND_ORGANIZATION_ASSIGNMENT ( #35, #174, ( #170 ) ) ;
#146 = CARTESIAN_POINT ( 'NONE',  ( 5.237222008264700033E-14, -1.844687275974544269E-15, 15.00000000000000000 ) ) ;
#147 = VERTEX_POINT ( 'NONE', #181 ) ;
#148 = FACE_OUTER_BOUND ( 'NONE', #38, .T. ) ;
#149 = DIRECTION ( 'NONE',  ( 3.491481338843133355E-15, -1.229791517316362731E-16, 1.000000000000000000 ) ) ;
#150 = DIRECTION ( 'NONE',  ( -3.491481338843133355E-15, 1.229791517316362731E-16, -1.000000000000000000 ) ) ;
#151 = CC_DESIGN_PERSON_AND_ORGANIZATION_ASSIGNMENT ( #171, #12, ( #214 ) ) ;
#152 = PERSON_AND_ORGANIZATION_ROLE ( 'classification_officer' ) ;
#153 = AXIS2_PLACEMENT_3D ( 'NONE', #43, #6, #110 ) ;
#154 = APPROVAL_ROLE ( '' ) ;
#155 = APPROVAL_STATUS ( 'not_yet_approved' ) ;
#156 = CLOSED_SHELL ( 'NONE', ( #61, #88, #18, #126, #47 ) ) ;
#157 = PERSON_AND_ORGANIZATION ( #40, #48 ) ;
#158 = EDGE_LOOP ( 'NONE', ( #21 ) ) ;
#159 = AXIS2_PLACEMENT_3D ( 'NONE', #217, #76, #96 ) ;
#160 = APPROVAL_DATE_TIME ( #192, #121 ) ;
#161 = DESIGN_CONTEXT ( 'detailed design', #23, 'design' ) ;
#162 = ADVANCED_FACE ( 'NONE', ( #46 ), #10, .T. ) ;
#163 = LOCAL_TIME ( 11, 23, 25.00000000000000000, #118 ) ;
#164 = DIRECTION ( 'NONE',  ( 3.491481338843133355E-15, -1.224646799147353207E-16, 1.000000000000000000 ) ) ;
#165 = DIRECTION ( 'NONE',  ( 0.0000000000000000000, 1.000000000000000000, 0.0000000000000000000 ) ) ;
#166 = CC_DESIGN_DATE_AND_TIME_ASSIGNMENT ( #119, #218, ( #191 ) ) ;
#167 = DIRECTION ( 'NONE',  ( -4.444453717816697988E-31, -1.000000000000000000, -1.251002506714043540E-16 ) ) ;
#168 = DIRECTION ( 'NONE',  ( -5.135813185032644414E-31, -1.000000000000000000, -1.445602896647343601E-16 ) ) ;
#169 = CARTESIAN_POINT ( 'NONE',  ( 1.316288464743861212E-13, -4.616918432785521081E-15, 37.69999999999999574 ) ) ;
#170 = PRODUCT ( '963124', '963124', '', ( #105 ) ) ;
#171 = PERSON_AND_ORGANIZATION ( #40, #48 ) ;
#172 = COORDINATED_UNIVERSAL_TIME_OFFSET ( 1, 0, .AHEAD. ) ;
#173 = LOCAL_TIME ( 11, 23, 25.00000000000000000, #220 ) ;
#174 = PERSON_AND_ORGANIZATION_ROLE ( 'design_owner' ) ;
#175 = EDGE_CURVE ( 'NONE', #213, #213, #115, .T. ) ;
#176 = APPROVAL_DATE_TIME ( #222, #123 ) ;
#177 = DIRECTION ( 'NONE',  ( 0.0000000000000000000, 0.0000000000000000000, 1.000000000000000000 ) ) ;
#178 = UNCERTAINTY_MEASURE_WITH_UNIT (LENGTH_MEASURE( 1.000000000000000082E-05 ), #117, 'distance_accuracy_value', 'NONE');
#179 = APPROVAL_PERSON_ORGANIZATION ( #157, #202, #85 ) ;
#180 = ORIENTED_EDGE ( 'NONE', *, *, #186, .F. ) ;
#181 = CARTESIAN_POINT ( 'NONE',  ( 1.652033865085272748E-15, -1.300000000000000044, 0.4731613045460690836 ) ) ;
#182 = AXIS2_PLACEMENT_3D ( 'NONE', #146, #114, #165 ) ;
#183 = FACE_OUTER_BOUND ( 'NONE', #36, .T. ) ;
#184 = CARTESIAN_POINT ( 'NONE',  ( 5.497829723269520491E-14, -1.936480164481380982E-15, 15.74641016151376682 ) ) ;
#185 = DIRECTION ( 'NONE',  ( -3.491481338843133355E-15, 1.224646799147353207E-16, -1.000000000000000000 ) ) ;
#186 = EDGE_CURVE ( 'NONE', #60, #60, #81, .T. ) ;
#187 = PERSON_AND_ORGANIZATION ( #40, #48 ) ;
#188 = CALENDAR_DATE ( 2021, 28, 10 ) ;
#189 = AXIS2_PLACEMENT_3D ( 'NONE', #199, #185, #7 ) ;
#190 = CARTESIAN_POINT ( 'NONE',  ( 1.316288464743861212E-13, 1.499999999999995337, 37.69999999999999574 ) ) ;
#191 = PRODUCT_DEFINITION ( 'UNKNOWN', '', #214, #161 ) ;
#192 = DATE_AND_TIME ( #37, #92 ) ;
#193 = AXIS2_PLACEMENT_3D ( 'NONE', #104, #177, #17 ) ;
#194 = EDGE_LOOP ( 'NONE', ( #58 ) ) ;
#195 = DIRECTION ( 'NONE',  ( -3.491481338843133355E-15, 1.229791517316362731E-16, -1.000000000000000000 ) ) ;
#196 = FACE_OUTER_BOUND ( 'NONE', #25, .T. ) ;
#197 = FACE_OUTER_BOUND ( 'NONE', #93, .T. ) ;
#198 = DIRECTION ( 'NONE',  ( -4.275831445896958607E-31, -1.000000000000000000, -1.224646799147353207E-16 ) ) ;
#199 = CARTESIAN_POINT ( 'NONE',  ( 1.326762908760390423E-13, -4.653657836759941941E-15, 38.00000000000000000 ) ) ;
#200 = AXIS2_PLACEMENT_3D ( 'NONE', #130, #97, #79 ) ;
#201 = APPROVAL_STATUS ( 'not_yet_approved' ) ;
#202 = APPROVAL ( #201, 'UNSPECIFIED' ) ;
#203 =( NAMED_UNIT ( * ) PLANE_ANGLE_UNIT ( ) SI_UNIT ( $, .RADIAN. ) );
#204 = AXIS2_PLACEMENT_3D ( 'NONE', #112, #164, #198 ) ;
#205 = DATE_TIME_ROLE ( 'classification_date' ) ;
#206 = ORIENTED_EDGE ( 'NONE', *, *, #175, .T. ) ;
#207 = LOCAL_TIME ( 11, 23, 25.00000000000000000, #49 ) ;
#208 = DIRECTION ( 'NONE',  ( 4.275831445896958607E-31, 1.000000000000000000, 1.224646799147353207E-16 ) ) ;
#209 = ORIENTED_EDGE ( 'NONE', *, *, #210, .T. ) ;
#210 = EDGE_CURVE ( 'NONE', #53, #53, #20, .T. ) ;
#211 = AXIS2_PLACEMENT_3D ( 'NONE', #98, #45, #168 ) ;
#212 = CARTESIAN_POINT ( 'NONE',  ( 5.497829723269520491E-14, 1.499999999999996669, 15.74641016151376682 ) ) ;
#213 = VERTEX_POINT ( 'NONE', #26 ) ;
#214 = PRODUCT_DEFINITION_FORMATION_WITH_SPECIFIED_SOURCE ( 'ANY', '', #170, .NOT_KNOWN. ) ;
#215 = FACE_BOUND ( 'NONE', #194, .T. ) ;
#216 = FACE_OUTER_BOUND ( 'NONE', #139, .T. ) ;
#217 = CARTESIAN_POINT ( 'NONE',  ( 5.237222008264700033E-14, 1.124819836996388553E-32, 15.00000000000000000 ) ) ;
#218 = DATE_TIME_ROLE ( 'creation_date' ) ;
#219 = CC_DESIGN_PERSON_AND_ORGANIZATION_ASSIGNMENT ( #15, #80, ( #214 ) ) ;
#220 = COORDINATED_UNIVERSAL_TIME_OFFSET ( 1, 0, .AHEAD. ) ;
#221 = SECURITY_CLASSIFICATION_LEVEL ( 'unclassified' ) ;
#222 = DATE_AND_TIME ( #68, #173 ) ;
#223 = SHAPE_DEFINITION_REPRESENTATION ( #19, #1 ) ;
ENDSEC;
END-ISO-10303-21;
