ISO-10303-21;
HEADER;
FILE_DESCRIPTION (( 'STEP AP203' ),
    '1' );
FILE_NAME ('963122.step',
    '2021-10-28T09:23:24',
    ( '' ),
    ( '' ),
    'SwSTEP 2.0',
    'SolidWorks 2019',
    '' );
FILE_SCHEMA (( 'CONFIG_CONTROL_DESIGN' ));
ENDSEC;

DATA;
#1 = CIRCLE ( 'NONE', #207, 1.499999999999998668 ) ;
#2 = PERSON_AND_ORGANIZATION ( #140, #79 ) ;
#3 = CC_DESIGN_PERSON_AND_ORGANIZATION_ASSIGNMENT ( #172, #20, ( #197 ) ) ;
#4 = DIRECTION ( 'NONE',  ( -4.275831445896958607E-31, -1.000000000000000000, -1.224646799147353207E-16 ) ) ;
#5 = EDGE_LOOP ( 'NONE', ( #129 ) ) ;
#6 = SHAPE_DEFINITION_REPRESENTATION ( #146, #60 ) ;
#7 = ADVANCED_FACE ( 'NONE', ( #110 ), #42, .T. ) ;
#8 = CARTESIAN_POINT ( 'NONE',  ( 0.0000000000000000000, 0.0000000000000000000, 0.0000000000000000000 ) ) ;
#9 = LOCAL_TIME ( 11, 23, 24.00000000000000000, #137 ) ;
#10 = FACE_OUTER_BOUND ( 'NONE', #5, .T. ) ;
#11 = VERTEX_POINT ( 'NONE', #100 ) ;
#12 = EDGE_CURVE ( 'NONE', #180, #180, #1, .T. ) ;
#13 = CARTESIAN_POINT ( 'NONE',  ( 1.326762908760390423E-13, -4.653657836759941941E-15, 38.00000000000000000 ) ) ;
#14 = APPROVAL_PERSON_ORGANIZATION ( #95, #32, #130 ) ;
#15 = DIRECTION ( 'NONE',  ( -3.491481338843133355E-15, 1.229791517316362731E-16, -1.000000000000000000 ) ) ;
#16 = MANIFOLD_SOLID_BREP ( 'Corps-Déplacer/Copier1[1]', #75 ) ;
#17 = APPROVAL_STATUS ( 'not_yet_approved' ) ;
#18 = APPLICATION_CONTEXT ( 'configuration controlled 3d designs of mechanical parts and assemblies' ) ;
#19 = DIRECTION ( 'NONE',  ( 0.0000000000000000000, 0.0000000000000000000, 1.000000000000000000 ) ) ;
#20 = PERSON_AND_ORGANIZATION_ROLE ( 'creator' ) ;
#21 = PERSON_AND_ORGANIZATION_ROLE ( 'design_owner' ) ;
#22 = ADVANCED_FACE ( 'NONE', ( #219, #167 ), #121, .T. ) ;
#23 =( NAMED_UNIT ( * ) PLANE_ANGLE_UNIT ( ) SI_UNIT ( $, .RADIAN. ) );
#24 = CIRCLE ( 'NONE', #67, 1.250000000000000222 ) ;
#25 = EDGE_CURVE ( 'NONE', #82, #82, #24, .T. ) ;
#26 = EDGE_LOOP ( 'NONE', ( #193 ) ) ;
#27 = EDGE_LOOP ( 'NONE', ( #215 ) ) ;
#28 = CC_DESIGN_DATE_AND_TIME_ASSIGNMENT ( #114, #179, ( #85 ) ) ;
#29 = DIRECTION ( 'NONE',  ( -4.275831445896958607E-31, -1.000000000000000000, -1.224646799147353207E-16 ) ) ;
#30 = CIRCLE ( 'NONE', #78, 1.250000000000000222 ) ;
#31 = DIRECTION ( 'NONE',  ( 3.491481338843133355E-15, -1.229791517316362731E-16, 1.000000000000000000 ) ) ;
#32 = APPROVAL ( #62, 'UNSPECIFIED' ) ;
#33 = CARTESIAN_POINT ( 'NONE',  ( 5.237222008264700033E-14, 1.124819836996388553E-32, 15.00000000000000000 ) ) ;
#34 = DIRECTION ( 'NONE',  ( 4.275831445896958607E-31, 1.000000000000000000, 1.224646799147353207E-16 ) ) ;
#35 = AXIS2_PLACEMENT_3D ( 'NONE', #66, #31, #220 ) ;
#36 = UNCERTAINTY_MEASURE_WITH_UNIT (LENGTH_MEASURE( 1.000000000000000082E-05 ), #124, 'distance_accuracy_value', 'NONE');
#37 = DATE_AND_TIME ( #156, #97 ) ;
#38 =( NAMED_UNIT ( * ) SI_UNIT ( $, .STERADIAN. ) SOLID_ANGLE_UNIT ( ) );
#39 = CALENDAR_DATE ( 2021, 28, 10 ) ;
#40 = VERTEX_POINT ( 'NONE', #92 ) ;
#41 = EDGE_LOOP ( 'NONE', ( #142 ) ) ;
#42 = PLANE ( 'NONE',  #162 ) ;
#43 = DIRECTION ( 'NONE',  ( 3.491481338843133355E-15, -1.224646799147353207E-16, 1.000000000000000000 ) ) ;
#44 = APPROVAL ( #123, 'UNSPECIFIED' ) ;
#45 = EDGE_LOOP ( 'NONE', ( #77 ) ) ;
#46 = EDGE_LOOP ( 'NONE', ( #63 ) ) ;
#47 = PLANE ( 'NONE',  #125 ) ;
#48 = EDGE_CURVE ( 'NONE', #11, #11, #211, .T. ) ;
#49 = VERTEX_POINT ( 'NONE', #83 ) ;
#50 = CARTESIAN_POINT ( 'NONE',  ( 1.326762908760390423E-13, -4.653657836759941941E-15, 38.00000000000000000 ) ) ;
#51 = CARTESIAN_POINT ( 'NONE',  ( 1.588494101043532376E-15, -5.571687279737786153E-17, 0.4549627928327589776 ) ) ;
#52 = PLANE ( 'NONE',  #202 ) ;
#53 = AXIS2_PLACEMENT_3D ( 'NONE', #50, #71, #205 ) ;
#54 = DATE_AND_TIME ( #76, #9 ) ;
#55 = PERSON_AND_ORGANIZATION_ROLE ( 'classification_officer' ) ;
#56 = LOCAL_TIME ( 11, 23, 24.00000000000000000, #208 ) ;
#57 = PERSON_AND_ORGANIZATION ( #140, #79 ) ;
#58 = ADVANCED_FACE ( 'NONE', ( #223, #222 ), #99, .T. ) ;
#59 = AXIS2_PLACEMENT_3D ( 'NONE', #206, #199, #136 ) ;
#60 = ADVANCED_BREP_SHAPE_REPRESENTATION ( '963122', ( #16, #161, #152 ), #96 ) ;
#61 = EDGE_LOOP ( 'NONE', ( #210 ) ) ;
#62 = APPROVAL_STATUS ( 'not_yet_approved' ) ;
#63 = ORIENTED_EDGE ( 'NONE', *, *, #163, .F. ) ;
#64 = LOCAL_TIME ( 11, 23, 24.00000000000000000, #189 ) ;
#65 = DIRECTION ( 'NONE',  ( -3.491481338843133355E-15, 1.229791517316362731E-16, -1.000000000000000000 ) ) ;
#66 = CARTESIAN_POINT ( 'NONE',  ( 5.562981652020726868E-14, -1.959428386608090062E-15, 15.93301270189221164 ) ) ;
#67 = AXIS2_PLACEMENT_3D ( 'NONE', #182, #15, #101 ) ;
#68 = DIRECTION ( 'NONE',  ( -3.491481338843133355E-15, 1.224646799147353207E-16, -1.000000000000000000 ) ) ;
#69 = DIRECTION ( 'NONE',  ( -3.491481338843133355E-15, 1.229791517316362731E-16, -1.000000000000000000 ) ) ;
#70 = EDGE_CURVE ( 'NONE', #49, #49, #117, .T. ) ;
#71 = DIRECTION ( 'NONE',  ( -3.491481338843133355E-15, 1.224646799147353207E-16, -1.000000000000000000 ) ) ;
#72 = CC_DESIGN_PERSON_AND_ORGANIZATION_ASSIGNMENT ( #2, #174, ( #197 ) ) ;
#73 = SECURITY_CLASSIFICATION_LEVEL ( 'unclassified' ) ;
#74 = APPLICATION_PROTOCOL_DEFINITION ( 'international standard', 'config_control_design', 1994, #184 ) ;
#75 = CLOSED_SHELL ( 'NONE', ( #58, #159, #89, #22, #176 ) ) ;
#76 = CALENDAR_DATE ( 2021, 28, 10 ) ;
#77 = ORIENTED_EDGE ( 'NONE', *, *, #48, .T. ) ;
#78 = AXIS2_PLACEMENT_3D ( 'NONE', #51, #81, #133 ) ;
#79 = ORGANIZATION ( 'UNSPECIFIED', 'UNSPECIFIED', '' ) ;
#80 = CONICAL_SURFACE ( 'NONE', #171, 1.499999999999995559, 1.221730476396026388 ) ;
#81 = DIRECTION ( 'NONE',  ( -3.491481338843133355E-15, 1.224646799147353207E-16, -1.000000000000000000 ) ) ;
#82 = VERTEX_POINT ( 'NONE', #149 ) ;
#83 = CARTESIAN_POINT ( 'NONE',  ( 1.326762908760390423E-13, 1.199999999999995293, 38.00000000000000000 ) ) ;
#84 = CLOSED_SHELL ( 'NONE', ( #7, #187, #150 ) ) ;
#85 = SECURITY_CLASSIFICATION ( '', '', #73 ) ;
#86 = DIRECTION ( 'NONE',  ( -3.491481338843133355E-15, 1.224646799147353207E-16, -1.000000000000000000 ) ) ;
#87 = FACE_OUTER_BOUND ( 'NONE', #144, .T. ) ;
#88 = APPROVAL_ROLE ( '' ) ;
#89 = ADVANCED_FACE ( 'NONE', ( #201 ), #47, .F. ) ;
#90 = PERSON_AND_ORGANIZATION ( #140, #79 ) ;
#91 = DIRECTION ( 'NONE',  ( 1.000000000000000000, 0.0000000000000000000, 0.0000000000000000000 ) ) ;
#92 = CARTESIAN_POINT ( 'NONE',  ( 1.588494101043531784E-15, -1.250000000000000222, 0.4549627928327588111 ) ) ;
#93 = AXIS2_PLACEMENT_3D ( 'NONE', #103, #69, #154 ) ;
#94 = CC_DESIGN_APPROVAL ( #32, ( #85 ) ) ;
#95 = PERSON_AND_ORGANIZATION ( #140, #79 ) ;
#96 =( GEOMETRIC_REPRESENTATION_CONTEXT ( 3 ) GLOBAL_UNCERTAINTY_ASSIGNED_CONTEXT ( ( #36 ) ) GLOBAL_UNIT_ASSIGNED_CONTEXT ( ( #124, #23, #38 ) ) REPRESENTATION_CONTEXT ( 'NONE', 'WORKASPACE' ) );
#97 = LOCAL_TIME ( 11, 23, 24.00000000000000000, #190 ) ;
#98 = FACE_OUTER_BOUND ( 'NONE', #46, .T. ) ;
#99 = CYLINDRICAL_SURFACE ( 'NONE', #188, 1.499999999999998446 ) ;
#100 = CARTESIAN_POINT ( 'NONE',  ( 1.316288464743861212E-13, 1.499999999999995337, 37.69999999999999574 ) ) ;
#101 = DIRECTION ( 'NONE',  ( 0.0000000000000000000, 1.000000000000000000, 0.0000000000000000000 ) ) ;
#102 = CC_DESIGN_DATE_AND_TIME_ASSIGNMENT ( #37, #139, ( #217 ) ) ;
#103 = CARTESIAN_POINT ( 'NONE',  ( 5.237222008264700033E-14, -1.844687275974544269E-15, 15.00000000000000000 ) ) ;
#104 = APPLICATION_PROTOCOL_DEFINITION ( 'international standard', 'config_control_design', 1994, #18 ) ;
#105 = APPROVAL_DATE_TIME ( #106, #44 ) ;
#106 = DATE_AND_TIME ( #138, #56 ) ;
#107 = EDGE_CURVE ( 'NONE', #151, #151, #128, .T. ) ;
#108 = APPROVAL_PERSON_ORGANIZATION ( #185, #111, #141 ) ;
#109 = PRODUCT ( '963122', '963122', '', ( #173 ) ) ;
#110 = FACE_OUTER_BOUND ( 'NONE', #212, .T. ) ;
#111 = APPROVAL ( #17, 'UNSPECIFIED' ) ;
#112 = CARTESIAN_POINT ( 'NONE',  ( 5.562981652020726868E-14, -1.959428386608090062E-15, 15.93301270189221164 ) ) ;
#113 = APPROVAL_PERSON_ORGANIZATION ( #169, #44, #88 ) ;
#114 = DATE_AND_TIME ( #39, #64 ) ;
#115 = EDGE_LOOP ( 'NONE', ( #196 ) ) ;
#116 = DIRECTION ( 'NONE',  ( 4.293794133377662246E-31, 1.000000000000000000, 1.229791517316362731E-16 ) ) ;
#117 = CIRCLE ( 'NONE', #143, 1.199999999999999956 ) ;
#118 = DIRECTION ( 'NONE',  ( 3.491481338843133355E-15, -1.224646799147353207E-16, 1.000000000000000000 ) ) ;
#119 = DIRECTION ( 'NONE',  ( 0.0000000000000000000, 1.000000000000000000, 0.0000000000000000000 ) ) ;
#120 = CARTESIAN_POINT ( 'NONE',  ( 1.906192921252232855E-15, -6.686024735685322183E-17, 0.5459553513993090634 ) ) ;
#121 = CONICAL_SURFACE ( 'NONE', #35, 1.499999999999998668, 0.2617993877991500740 ) ;
#122 = DIRECTION ( 'NONE',  ( 3.491481338843133355E-15, -1.224646799147353207E-16, 1.000000000000000000 ) ) ;
#123 = APPROVAL_STATUS ( 'not_yet_approved' ) ;
#124 =( LENGTH_UNIT ( ) NAMED_UNIT ( * ) SI_UNIT ( .MILLI., .METRE. ) );
#125 = AXIS2_PLACEMENT_3D ( 'NONE', #153, #68, #34 ) ;
#126 = CC_DESIGN_PERSON_AND_ORGANIZATION_ASSIGNMENT ( #57, #21, ( #109 ) ) ;
#127 = EDGE_LOOP ( 'NONE', ( #158 ) ) ;
#128 = CIRCLE ( 'NONE', #93, 1.250000000000000222 ) ;
#129 = ORIENTED_EDGE ( 'NONE', *, *, #25, .T. ) ;
#130 = APPROVAL_ROLE ( '' ) ;
#131 = ORIENTED_EDGE ( 'NONE', *, *, #163, .T. ) ;
#132 = DIRECTION ( 'NONE',  ( -5.135813185032644414E-31, -1.000000000000000000, -1.445602896647343601E-16 ) ) ;
#133 = DIRECTION ( 'NONE',  ( -4.622231866529365172E-31, -1.000000000000000000, -1.301042606982605074E-16 ) ) ;
#134 = AXIS2_PLACEMENT_3D ( 'NONE', #218, #65, #116 ) ;
#135 = FACE_BOUND ( 'NONE', #127, .T. ) ;
#136 = DIRECTION ( 'NONE',  ( 0.0000000000000000000, 1.000000000000000000, 0.0000000000000000000 ) ) ;
#137 = COORDINATED_UNIVERSAL_TIME_OFFSET ( 1, 0, .AHEAD. ) ;
#138 = CALENDAR_DATE ( 2021, 28, 10 ) ;
#139 = DATE_TIME_ROLE ( 'creation_date' ) ;
#140 = PERSON ( 'UNSPECIFIED', 'UNSPECIFIED', 'UNSPECIFIED', ('UNSPECIFIED'), ('UNSPECIFIED'), ('UNSPECIFIED') ) ;
#141 = APPROVAL_ROLE ( '' ) ;
#142 = ORIENTED_EDGE ( 'NONE', *, *, #107, .T. ) ;
#143 = AXIS2_PLACEMENT_3D ( 'NONE', #13, #86, #119 ) ;
#144 = EDGE_LOOP ( 'NONE', ( #131 ) ) ;
#145 = COORDINATED_UNIVERSAL_TIME_OFFSET ( 1, 0, .AHEAD. ) ;
#146 = PRODUCT_DEFINITION_SHAPE ( 'NONE', 'NONE',  #217 ) ;
#147 = CONICAL_SURFACE ( 'NONE', #53, 1.199999999999999956, 0.7853981633974453924 ) ;
#148 = CYLINDRICAL_SURFACE ( 'NONE', #134, 1.250000000000000222 ) ;
#149 = CARTESIAN_POINT ( 'NONE',  ( 5.237222008264700033E-14, 1.249999999999998224, 15.00000000000000000 ) ) ;
#150 = ADVANCED_FACE ( 'NONE', ( #87 ), #80, .T. ) ;
#151 = VERTEX_POINT ( 'NONE', #186 ) ;
#152 = AXIS2_PLACEMENT_3D ( 'NONE', #170, #19, #91 ) ;
#153 = CARTESIAN_POINT ( 'NONE',  ( 1.326762908760390423E-13, 8.998558695971077224E-33, 38.00000000000000000 ) ) ;
#154 = DIRECTION ( 'NONE',  ( 0.0000000000000000000, 1.000000000000000000, 0.0000000000000000000 ) ) ;
#155 = APPROVAL_DATE_TIME ( #54, #111 ) ;
#156 = CALENDAR_DATE ( 2021, 28, 10 ) ;
#157 = PERSON_AND_ORGANIZATION_ROLE ( 'creator' ) ;
#158 = ORIENTED_EDGE ( 'NONE', *, *, #70, .T. ) ;
#159 = ADVANCED_FACE ( 'NONE', ( #204, #135 ), #147, .T. ) ;
#160 = DIRECTION ( 'NONE',  ( -3.491481338843133355E-15, 1.224646799147353207E-16, -1.000000000000000000 ) ) ;
#161 = MANIFOLD_SOLID_BREP ( 'Corps-Déplacer/Copier1[2]', #84 ) ;
#162 = AXIS2_PLACEMENT_3D ( 'NONE', #178, #43, #4 ) ;
#163 = EDGE_CURVE ( 'NONE', #40, #40, #30, .T. ) ;
#164 = DIRECTION ( 'NONE',  ( 0.0000000000000000000, 1.000000000000000000, 0.0000000000000000000 ) ) ;
#165 = DIRECTION ( 'NONE',  ( 4.275831445896958607E-31, 1.000000000000000000, 1.224646799147353207E-16 ) ) ;
#166 = DIRECTION ( 'NONE',  ( -3.491481338843133355E-15, 1.229791517316362731E-16, -1.000000000000000000 ) ) ;
#167 = FACE_OUTER_BOUND ( 'NONE', #26, .T. ) ;
#168 = DESIGN_CONTEXT ( 'detailed design', #184, 'design' ) ;
#169 = PERSON_AND_ORGANIZATION ( #140, #79 ) ;
#170 = CARTESIAN_POINT ( 'NONE',  ( 0.0000000000000000000, 0.0000000000000000000, 0.0000000000000000000 ) ) ;
#171 = AXIS2_PLACEMENT_3D ( 'NONE', #120, #118, #132 ) ;
#172 = PERSON_AND_ORGANIZATION ( #140, #79 ) ;
#173 = MECHANICAL_CONTEXT ( 'NONE', #18, 'mechanical' ) ;
#174 = PERSON_AND_ORGANIZATION_ROLE ( 'design_supplier' ) ;
#175 = CC_DESIGN_SECURITY_CLASSIFICATION ( #85, ( #197 ) ) ;
#176 = ADVANCED_FACE ( 'NONE', ( #183 ), #52, .F. ) ;
#177 = ORIENTED_EDGE ( 'NONE', *, *, #25, .F. ) ;
#178 = CARTESIAN_POINT ( 'NONE',  ( 5.237222008264700033E-14, 1.124819836996388553E-32, 15.00000000000000000 ) ) ;
#179 = DATE_TIME_ROLE ( 'classification_date' ) ;
#180 = VERTEX_POINT ( 'NONE', #181 ) ;
#181 = CARTESIAN_POINT ( 'NONE',  ( 5.562981652020726868E-14, 1.499999999999996669, 15.93301270189221164 ) ) ;
#182 = CARTESIAN_POINT ( 'NONE',  ( 5.237222008264700033E-14, -1.844687275974544269E-15, 15.00000000000000000 ) ) ;
#183 = FACE_OUTER_BOUND ( 'NONE', #41, .T. ) ;
#184 = APPLICATION_CONTEXT ( 'configuration controlled 3d designs of mechanical parts and assemblies' ) ;
#185 = PERSON_AND_ORGANIZATION ( #140, #79 ) ;
#186 = CARTESIAN_POINT ( 'NONE',  ( 5.237222008264700033E-14, 1.249999999999998224, 15.00000000000000000 ) ) ;
#187 = ADVANCED_FACE ( 'NONE', ( #10, #98 ), #148, .T. ) ;
#188 = AXIS2_PLACEMENT_3D ( 'NONE', #8, #160, #165 ) ;
#189 = COORDINATED_UNIVERSAL_TIME_OFFSET ( 1, 0, .AHEAD. ) ;
#190 = COORDINATED_UNIVERSAL_TIME_OFFSET ( 1, 0, .AHEAD. ) ;
#191 = CC_DESIGN_PERSON_AND_ORGANIZATION_ASSIGNMENT ( #90, #157, ( #217 ) ) ;
#192 = APPROVAL_DATE_TIME ( #214, #32 ) ;
#193 = ORIENTED_EDGE ( 'NONE', *, *, #12, .T. ) ;
#194 = CALENDAR_DATE ( 2021, 28, 10 ) ;
#195 = ORIENTED_EDGE ( 'NONE', *, *, #12, .F. ) ;
#196 = ORIENTED_EDGE ( 'NONE', *, *, #70, .F. ) ;
#197 = PRODUCT_DEFINITION_FORMATION_WITH_SPECIFIED_SOURCE ( 'ANY', '', #109, .NOT_KNOWN. ) ;
#198 = EDGE_LOOP ( 'NONE', ( #195 ) ) ;
#199 = DIRECTION ( 'NONE',  ( -3.491481338843133355E-15, 1.224646799147353207E-16, -1.000000000000000000 ) ) ;
#200 = CC_DESIGN_PERSON_AND_ORGANIZATION_ASSIGNMENT ( #209, #55, ( #85 ) ) ;
#201 = FACE_OUTER_BOUND ( 'NONE', #115, .T. ) ;
#202 = AXIS2_PLACEMENT_3D ( 'NONE', #33, #122, #29 ) ;
#203 = CC_DESIGN_APPROVAL ( #111, ( #217 ) ) ;
#204 = FACE_OUTER_BOUND ( 'NONE', #27, .T. ) ;
#205 = DIRECTION ( 'NONE',  ( 0.0000000000000000000, 1.000000000000000000, 0.0000000000000000000 ) ) ;
#206 = CARTESIAN_POINT ( 'NONE',  ( 1.316288464743861212E-13, -4.616918432785521081E-15, 37.69999999999999574 ) ) ;
#207 = AXIS2_PLACEMENT_3D ( 'NONE', #112, #166, #164 ) ;
#208 = COORDINATED_UNIVERSAL_TIME_OFFSET ( 1, 0, .AHEAD. ) ;
#209 = PERSON_AND_ORGANIZATION ( #140, #79 ) ;
#210 = ORIENTED_EDGE ( 'NONE', *, *, #107, .F. ) ;
#211 = CIRCLE ( 'NONE', #59, 1.499999999999999778 ) ;
#212 = EDGE_LOOP ( 'NONE', ( #177 ) ) ;
#213 = PRODUCT_RELATED_PRODUCT_CATEGORY ( 'detail', '', ( #109 ) ) ;
#214 = DATE_AND_TIME ( #194, #216 ) ;
#215 = ORIENTED_EDGE ( 'NONE', *, *, #48, .F. ) ;
#216 = LOCAL_TIME ( 11, 23, 24.00000000000000000, #145 ) ;
#217 = PRODUCT_DEFINITION ( 'UNKNOWN', '', #197, #168 ) ;
#218 = CARTESIAN_POINT ( 'NONE',  ( 0.0000000000000000000, 0.0000000000000000000, 0.0000000000000000000 ) ) ;
#219 = FACE_BOUND ( 'NONE', #61, .T. ) ;
#220 = DIRECTION ( 'NONE',  ( 0.0000000000000000000, -1.000000000000000000, 0.0000000000000000000 ) ) ;
#221 = CC_DESIGN_APPROVAL ( #44, ( #197 ) ) ;
#222 = FACE_OUTER_BOUND ( 'NONE', #45, .T. ) ;
#223 = FACE_OUTER_BOUND ( 'NONE', #198, .T. ) ;
ENDSEC;
END-ISO-10303-21;
