ISO-10303-21;
HEADER;
FILE_DESCRIPTION (( 'STEP AP203' ),
    '1' );
FILE_NAME ('963121.step',
    '2021-10-28T09:23:23',
    ( '' ),
    ( '' ),
    'SwSTEP 2.0',
    'SolidWorks 2019',
    '' );
FILE_SCHEMA (( 'CONFIG_CONTROL_DESIGN' ));
ENDSEC;

DATA;
#1 = DIRECTION ( 'NONE',  ( 3.491481338843133355E-15, -1.224646799147353207E-16, 1.000000000000000000 ) ) ;
#2 = FACE_OUTER_BOUND ( 'NONE', #157, .T. ) ;
#3 = CARTESIAN_POINT ( 'NONE',  ( 1.326762908760390423E-13, -4.653657836759941941E-15, 38.00000000000000000 ) ) ;
#4 = CARTESIAN_POINT ( 'NONE',  ( 1.556724219022661302E-15, -1.225000000000000311, 0.4458635369761037026 ) ) ;
#5 = EDGE_LOOP ( 'NONE', ( #127 ) ) ;
#6 = ADVANCED_FACE ( 'NONE', ( #90 ), #205, .T. ) ;
#7 = APPROVAL ( #85, 'UNSPECIFIED' ) ;
#8 = DIRECTION ( 'NONE',  ( 0.0000000000000000000, 1.000000000000000000, 0.0000000000000000000 ) ) ;
#9 = LOCAL_TIME ( 11, 23, 23.00000000000000000, #151 ) ;
#10 = DATE_AND_TIME ( #201, #179 ) ;
#11 = MANIFOLD_SOLID_BREP ( 'Corps-Déplacer/Copier1[2]', #35 ) ;
#12 = DIRECTION ( 'NONE',  ( 0.0000000000000000000, 0.0000000000000000000, 1.000000000000000000 ) ) ;
#13 = APPROVAL_STATUS ( 'not_yet_approved' ) ;
#14 = CIRCLE ( 'NONE', #138, 1.225000000000000311 ) ;
#15 = CC_DESIGN_SECURITY_CLASSIFICATION ( #130, ( #37 ) ) ;
#16 = DESIGN_CONTEXT ( 'detailed design', #26, 'design' ) ;
#17 = ORIENTED_EDGE ( 'NONE', *, *, #115, .F. ) ;
#18 = FACE_BOUND ( 'NONE', #77, .T. ) ;
#19 = CIRCLE ( 'NONE', #48, 1.225000000000000311 ) ;
#20 = PRODUCT_DEFINITION_SHAPE ( 'NONE', 'NONE',  #52 ) ;
#21 = DIRECTION ( 'NONE',  ( 0.0000000000000000000, 1.000000000000000000, 0.0000000000000000000 ) ) ;
#22 = EDGE_CURVE ( 'NONE', #176, #176, #14, .T. ) ;
#23 = CIRCLE ( 'NONE', #72, 1.499999999999998668 ) ;
#24 = EDGE_CURVE ( 'NONE', #75, #75, #168, .T. ) ;
#25 = DIRECTION ( 'NONE',  ( -3.491481338843133355E-15, 1.229791517316362731E-16, -1.000000000000000000 ) ) ;
#26 = APPLICATION_CONTEXT ( 'configuration controlled 3d designs of mechanical parts and assemblies' ) ;
#27 = COORDINATED_UNIVERSAL_TIME_OFFSET ( 1, 0, .AHEAD. ) ;
#28 = AXIS2_PLACEMENT_3D ( 'NONE', #129, #74, #209 ) ;
#29 = CALENDAR_DATE ( 2021, 28, 10 ) ;
#30 = SECURITY_CLASSIFICATION_LEVEL ( 'unclassified' ) ;
#31 = APPROVAL_DATE_TIME ( #100, #182 ) ;
#32 = PRODUCT_RELATED_PRODUCT_CATEGORY ( 'detail', '', ( #59 ) ) ;
#33 = CIRCLE ( 'NONE', #56, 1.199999999999999956 ) ;
#34 = CARTESIAN_POINT ( 'NONE',  ( 5.237222008264700033E-14, 1.124819836996388553E-32, 15.00000000000000000 ) ) ;
#35 = CLOSED_SHELL ( 'NONE', ( #89, #218, #6 ) ) ;
#36 = FACE_OUTER_BOUND ( 'NONE', #208, .T. ) ;
#37 = PRODUCT_DEFINITION_FORMATION_WITH_SPECIFIED_SOURCE ( 'ANY', '', #59, .NOT_KNOWN. ) ;
#38 = DIRECTION ( 'NONE',  ( -3.491481338843133355E-15, 1.224646799147353207E-16, -1.000000000000000000 ) ) ;
#39 = FACE_OUTER_BOUND ( 'NONE', #123, .T. ) ;
#40 = CC_DESIGN_DATE_AND_TIME_ASSIGNMENT ( #10, #183, ( #52 ) ) ;
#41 = ORIENTED_EDGE ( 'NONE', *, *, #206, .F. ) ;
#42 = APPROVAL_ROLE ( '' ) ;
#43 = DATE_TIME_ROLE ( 'classification_date' ) ;
#44 = COORDINATED_UNIVERSAL_TIME_OFFSET ( 1, 0, .AHEAD. ) ;
#45 = AXIS2_PLACEMENT_3D ( 'NONE', #78, #58, #21 ) ;
#46 = PERSON_AND_ORGANIZATION ( #102, #221 ) ;
#47 = ADVANCED_FACE ( 'NONE', ( #131 ), #216, .F. ) ;
#48 = AXIS2_PLACEMENT_3D ( 'NONE', #163, #92, #158 ) ;
#49 = CIRCLE ( 'NONE', #104, 1.225000000000000311 ) ;
#50 = UNCERTAINTY_MEASURE_WITH_UNIT (LENGTH_MEASURE( 1.000000000000000082E-05 ), #51, 'distance_accuracy_value', 'NONE');
#51 =( LENGTH_UNIT ( ) NAMED_UNIT ( * ) SI_UNIT ( .MILLI., .METRE. ) );
#52 = PRODUCT_DEFINITION ( 'UNKNOWN', '', #37, #16 ) ;
#53 = VERTEX_POINT ( 'NONE', #109 ) ;
#54 = EDGE_LOOP ( 'NONE', ( #106 ) ) ;
#55 = DIRECTION ( 'NONE',  ( -3.491481338843133355E-15, 1.224646799147353207E-16, -1.000000000000000000 ) ) ;
#56 = AXIS2_PLACEMENT_3D ( 'NONE', #3, #38, #114 ) ;
#57 = EDGE_LOOP ( 'NONE', ( #223 ) ) ;
#58 = DIRECTION ( 'NONE',  ( -3.491481338843133355E-15, 1.224646799147353207E-16, -1.000000000000000000 ) ) ;
#59 = PRODUCT ( '963121', '963121', '', ( #164 ) ) ;
#60 = SHAPE_DEFINITION_REPRESENTATION ( #20, #169 ) ;
#61 = AXIS2_PLACEMENT_3D ( 'NONE', #156, #189, #153 ) ;
#62 = PERSON_AND_ORGANIZATION ( #102, #221 ) ;
#63 = CALENDAR_DATE ( 2021, 28, 10 ) ;
#64 = DIRECTION ( 'NONE',  ( -3.491481338843133355E-15, 1.224646799147353207E-16, -1.000000000000000000 ) ) ;
#65 = APPLICATION_PROTOCOL_DEFINITION ( 'international standard', 'config_control_design', 1994, #26 ) ;
#66 = AXIS2_PLACEMENT_3D ( 'NONE', #34, #211, #145 ) ;
#67 = APPROVAL_DATE_TIME ( #133, #7 ) ;
#68 = CC_DESIGN_DATE_AND_TIME_ASSIGNMENT ( #166, #43, ( #130 ) ) ;
#69 = LOCAL_TIME ( 11, 23, 23.00000000000000000, #27 ) ;
#70 = CARTESIAN_POINT ( 'NONE',  ( 1.906192921252232855E-15, -6.686024735685322183E-17, 0.5459553513993090634 ) ) ;
#71 = EDGE_CURVE ( 'NONE', #53, #53, #49, .T. ) ;
#72 = AXIS2_PLACEMENT_3D ( 'NONE', #195, #25, #8 ) ;
#73 = CC_DESIGN_PERSON_AND_ORGANIZATION_ASSIGNMENT ( #200, #132, ( #37 ) ) ;
#74 = DIRECTION ( 'NONE',  ( -3.491481338843133355E-15, 1.229791517316362731E-16, -1.000000000000000000 ) ) ;
#75 = VERTEX_POINT ( 'NONE', #79 ) ;
#76 = CC_DESIGN_APPROVAL ( #182, ( #52 ) ) ;
#77 = EDGE_LOOP ( 'NONE', ( #113 ) ) ;
#78 = CARTESIAN_POINT ( 'NONE',  ( 1.326762908760390423E-13, -4.653657836759941941E-15, 38.00000000000000000 ) ) ;
#79 = CARTESIAN_POINT ( 'NONE',  ( 1.316288464743861212E-13, 1.499999999999995337, 37.69999999999999574 ) ) ;
#80 = ADVANCED_FACE ( 'NONE', ( #122, #87 ), #170, .T. ) ;
#81 = AXIS2_PLACEMENT_3D ( 'NONE', #119, #12, #150 ) ;
#82 = PERSON_AND_ORGANIZATION ( #102, #221 ) ;
#83 = COORDINATED_UNIVERSAL_TIME_OFFSET ( 1, 0, .AHEAD. ) ;
#84 = DIRECTION ( 'NONE',  ( 4.275831445896958607E-31, 1.000000000000000000, 1.224646799147353207E-16 ) ) ;
#85 = APPROVAL_STATUS ( 'not_yet_approved' ) ;
#86 = DATE_AND_TIME ( #116, #202 ) ;
#87 = FACE_OUTER_BOUND ( 'NONE', #54, .T. ) ;
#88 = APPROVAL ( #13, 'UNSPECIFIED' ) ;
#89 = ADVANCED_FACE ( 'NONE', ( #171 ), #96, .T. ) ;
#90 = FACE_OUTER_BOUND ( 'NONE', #5, .T. ) ;
#91 = ORIENTED_EDGE ( 'NONE', *, *, #22, .F. ) ;
#92 = DIRECTION ( 'NONE',  ( -3.491481338843133355E-15, 1.229791517316362731E-16, -1.000000000000000000 ) ) ;
#93 = DIRECTION ( 'NONE',  ( 4.275831445896958607E-31, 1.000000000000000000, 1.224646799147353207E-16 ) ) ;
#94 = ORIENTED_EDGE ( 'NONE', *, *, #206, .T. ) ;
#95 = AXIS2_PLACEMENT_3D ( 'NONE', #70, #1, #140 ) ;
#96 = PLANE ( 'NONE',  #66 ) ;
#97 = APPLICATION_PROTOCOL_DEFINITION ( 'international standard', 'config_control_design', 1994, #196 ) ;
#98 = CARTESIAN_POINT ( 'NONE',  ( 1.316288464743861212E-13, -4.616918432785521081E-15, 37.69999999999999574 ) ) ;
#99 = CALENDAR_DATE ( 2021, 28, 10 ) ;
#100 = DATE_AND_TIME ( #29, #9 ) ;
#101 = PERSON_AND_ORGANIZATION_ROLE ( 'classification_officer' ) ;
#102 = PERSON ( 'UNSPECIFIED', 'UNSPECIFIED', 'UNSPECIFIED', ('UNSPECIFIED'), ('UNSPECIFIED'), ('UNSPECIFIED') ) ;
#103 = CC_DESIGN_PERSON_AND_ORGANIZATION_ASSIGNMENT ( #165, #187, ( #37 ) ) ;
#104 = AXIS2_PLACEMENT_3D ( 'NONE', #137, #146, #185 ) ;
#105 = ADVANCED_FACE ( 'NONE', ( #107, #141 ), #173, .T. ) ;
#106 = ORIENTED_EDGE ( 'NONE', *, *, #136, .T. ) ;
#107 = FACE_OUTER_BOUND ( 'NONE', #57, .T. ) ;
#108 = CONICAL_SURFACE ( 'NONE', #45, 1.199999999999999956, 0.7853981633974453924 ) ;
#109 = CARTESIAN_POINT ( 'NONE',  ( 5.237222008264700033E-14, 1.224999999999998535, 15.00000000000000000 ) ) ;
#110 = DIRECTION ( 'NONE',  ( -4.275831445896958607E-31, -1.000000000000000000, -1.224646799147353207E-16 ) ) ;
#111 = EDGE_LOOP ( 'NONE', ( #94 ) ) ;
#112 = PLANE ( 'NONE',  #154 ) ;
#113 = ORIENTED_EDGE ( 'NONE', *, *, #115, .T. ) ;
#114 = DIRECTION ( 'NONE',  ( 0.0000000000000000000, 1.000000000000000000, 0.0000000000000000000 ) ) ;
#115 = EDGE_CURVE ( 'NONE', #148, #148, #33, .T. ) ;
#116 = CALENDAR_DATE ( 2021, 28, 10 ) ;
#117 = COORDINATED_UNIVERSAL_TIME_OFFSET ( 1, 0, .AHEAD. ) ;
#118 = CC_DESIGN_APPROVAL ( #88, ( #130 ) ) ;
#119 = CARTESIAN_POINT ( 'NONE',  ( 0.0000000000000000000, 0.0000000000000000000, 0.0000000000000000000 ) ) ;
#120 = ADVANCED_FACE ( 'NONE', ( #36, #18 ), #108, .T. ) ;
#121 = AXIS2_PLACEMENT_3D ( 'NONE', #98, #64, #186 ) ;
#122 = FACE_BOUND ( 'NONE', #213, .T. ) ;
#123 = EDGE_LOOP ( 'NONE', ( #191 ) ) ;
#124 = ORIENTED_EDGE ( 'NONE', *, *, #24, .T. ) ;
#125 = AXIS2_PLACEMENT_3D ( 'NONE', #147, #197, #84 ) ;
#126 = CARTESIAN_POINT ( 'NONE',  ( 0.0000000000000000000, 0.0000000000000000000, 0.0000000000000000000 ) ) ;
#127 = ORIENTED_EDGE ( 'NONE', *, *, #22, .T. ) ;
#128 = CARTESIAN_POINT ( 'NONE',  ( 1.326762908760390423E-13, 1.199999999999995293, 38.00000000000000000 ) ) ;
#129 = CARTESIAN_POINT ( 'NONE',  ( 0.0000000000000000000, 0.0000000000000000000, 0.0000000000000000000 ) ) ;
#130 = SECURITY_CLASSIFICATION ( '', '', #30 ) ;
#131 = FACE_OUTER_BOUND ( 'NONE', #210, .T. ) ;
#132 = PERSON_AND_ORGANIZATION_ROLE ( 'design_supplier' ) ;
#133 = DATE_AND_TIME ( #63, #69 ) ;
#134 = PERSON_AND_ORGANIZATION_ROLE ( 'creator' ) ;
#135 = CC_DESIGN_PERSON_AND_ORGANIZATION_ASSIGNMENT ( #188, #181, ( #59 ) ) ;
#136 = EDGE_CURVE ( 'NONE', #194, #194, #23, .T. ) ;
#137 = CARTESIAN_POINT ( 'NONE',  ( 5.237222008264700033E-14, -1.844687275974544269E-15, 15.00000000000000000 ) ) ;
#138 = AXIS2_PLACEMENT_3D ( 'NONE', #207, #203, #199 ) ;
#139 = LOCAL_TIME ( 11, 23, 23.00000000000000000, #44 ) ;
#140 = DIRECTION ( 'NONE',  ( -5.135813185032644414E-31, -1.000000000000000000, -1.445602896647343601E-16 ) ) ;
#141 = FACE_OUTER_BOUND ( 'NONE', #178, .T. ) ;
#142 = ORIENTED_EDGE ( 'NONE', *, *, #71, .F. ) ;
#143 = FACE_OUTER_BOUND ( 'NONE', #111, .T. ) ;
#144 = AXIS2_PLACEMENT_3D ( 'NONE', #126, #55, #93 ) ;
#145 = DIRECTION ( 'NONE',  ( -4.275831445896958607E-31, -1.000000000000000000, -1.224646799147353207E-16 ) ) ;
#146 = DIRECTION ( 'NONE',  ( -3.491481338843133355E-15, 1.229791517316362731E-16, -1.000000000000000000 ) ) ;
#147 = CARTESIAN_POINT ( 'NONE',  ( 1.326762908760390423E-13, 8.998558695971077224E-33, 38.00000000000000000 ) ) ;
#148 = VERTEX_POINT ( 'NONE', #128 ) ;
#149 = CLOSED_SHELL ( 'NONE', ( #105, #120, #47, #80, #172 ) ) ;
#150 = DIRECTION ( 'NONE',  ( 1.000000000000000000, 0.0000000000000000000, 0.0000000000000000000 ) ) ;
#151 = COORDINATED_UNIVERSAL_TIME_OFFSET ( 1, 0, .AHEAD. ) ;
#152 = APPROVAL_ROLE ( '' ) ;
#153 = DIRECTION ( 'NONE',  ( 0.0000000000000000000, -1.000000000000000000, 0.0000000000000000000 ) ) ;
#154 = AXIS2_PLACEMENT_3D ( 'NONE', #159, #214, #110 ) ;
#155 = MANIFOLD_SOLID_BREP ( 'Corps-Déplacer/Copier1[1]', #149 ) ;
#156 = CARTESIAN_POINT ( 'NONE',  ( 5.595557616396330372E-14, -1.970902497671445194E-15, 16.02631397208143227 ) ) ;
#157 = EDGE_LOOP ( 'NONE', ( #91 ) ) ;
#158 = DIRECTION ( 'NONE',  ( 0.0000000000000000000, 1.000000000000000000, 0.0000000000000000000 ) ) ;
#159 = CARTESIAN_POINT ( 'NONE',  ( 5.237222008264700033E-14, 1.124819836996388553E-32, 15.00000000000000000 ) ) ;
#160 = ORIENTED_EDGE ( 'NONE', *, *, #24, .F. ) ;
#161 =( GEOMETRIC_REPRESENTATION_CONTEXT ( 3 ) GLOBAL_UNCERTAINTY_ASSIGNED_CONTEXT ( ( #50 ) ) GLOBAL_UNIT_ASSIGNED_CONTEXT ( ( #51, #215, #204 ) ) REPRESENTATION_CONTEXT ( 'NONE', 'WORKASPACE' ) );
#162 = CARTESIAN_POINT ( 'NONE',  ( 5.237222008264700033E-14, 1.224999999999998535, 15.00000000000000000 ) ) ;
#163 = CARTESIAN_POINT ( 'NONE',  ( 5.237222008264700033E-14, -1.844687275974544269E-15, 15.00000000000000000 ) ) ;
#164 = MECHANICAL_CONTEXT ( 'NONE', #196, 'mechanical' ) ;
#165 = PERSON_AND_ORGANIZATION ( #102, #221 ) ;
#166 = DATE_AND_TIME ( #99, #139 ) ;
#167 = PERSON_AND_ORGANIZATION ( #102, #221 ) ;
#168 = CIRCLE ( 'NONE', #121, 1.499999999999999778 ) ;
#169 = ADVANCED_BREP_SHAPE_REPRESENTATION ( '963121', ( #155, #11, #81 ), #161 ) ;
#170 = CONICAL_SURFACE ( 'NONE', #61, 1.499999999999998668, 0.2617993877991497964 ) ;
#171 = FACE_OUTER_BOUND ( 'NONE', #177, .T. ) ;
#172 = ADVANCED_FACE ( 'NONE', ( #39 ), #112, .F. ) ;
#173 = CYLINDRICAL_SURFACE ( 'NONE', #144, 1.499999999999998446 ) ;
#174 = APPROVAL_PERSON_ORGANIZATION ( #82, #182, #219 ) ;
#175 = VERTEX_POINT ( 'NONE', #162 ) ;
#176 = VERTEX_POINT ( 'NONE', #4 ) ;
#177 = EDGE_LOOP ( 'NONE', ( #41 ) ) ;
#178 = EDGE_LOOP ( 'NONE', ( #124 ) ) ;
#179 = LOCAL_TIME ( 11, 23, 23.00000000000000000, #83 ) ;
#180 = CARTESIAN_POINT ( 'NONE',  ( 5.595557616396330372E-14, 1.499999999999996669, 16.02631397208143227 ) ) ;
#181 = PERSON_AND_ORGANIZATION_ROLE ( 'design_owner' ) ;
#182 = APPROVAL ( #220, 'UNSPECIFIED' ) ;
#183 = DATE_TIME_ROLE ( 'creation_date' ) ;
#184 = PERSON_AND_ORGANIZATION ( #102, #221 ) ;
#185 = DIRECTION ( 'NONE',  ( 0.0000000000000000000, 1.000000000000000000, 0.0000000000000000000 ) ) ;
#186 = DIRECTION ( 'NONE',  ( 0.0000000000000000000, 1.000000000000000000, 0.0000000000000000000 ) ) ;
#187 = PERSON_AND_ORGANIZATION_ROLE ( 'creator' ) ;
#188 = PERSON_AND_ORGANIZATION ( #102, #221 ) ;
#189 = DIRECTION ( 'NONE',  ( 3.491481338843133355E-15, -1.229791517316362731E-16, 1.000000000000000000 ) ) ;
#190 = APPROVAL_PERSON_ORGANIZATION ( #46, #7, #42 ) ;
#191 = ORIENTED_EDGE ( 'NONE', *, *, #71, .T. ) ;
#192 = CC_DESIGN_APPROVAL ( #7, ( #37 ) ) ;
#193 = CYLINDRICAL_SURFACE ( 'NONE', #28, 1.225000000000000311 ) ;
#194 = VERTEX_POINT ( 'NONE', #180 ) ;
#195 = CARTESIAN_POINT ( 'NONE',  ( 5.595557616396330372E-14, -1.970902497671445194E-15, 16.02631397208143227 ) ) ;
#196 = APPLICATION_CONTEXT ( 'configuration controlled 3d designs of mechanical parts and assemblies' ) ;
#197 = DIRECTION ( 'NONE',  ( -3.491481338843133355E-15, 1.224646799147353207E-16, -1.000000000000000000 ) ) ;
#198 = CC_DESIGN_PERSON_AND_ORGANIZATION_ASSIGNMENT ( #62, #134, ( #52 ) ) ;
#199 = DIRECTION ( 'NONE',  ( -4.716563129111596703E-31, -1.000000000000000000, -1.327594496921025470E-16 ) ) ;
#200 = PERSON_AND_ORGANIZATION ( #102, #221 ) ;
#201 = CALENDAR_DATE ( 2021, 28, 10 ) ;
#202 = LOCAL_TIME ( 11, 23, 23.00000000000000000, #117 ) ;
#203 = DIRECTION ( 'NONE',  ( -3.491481338843133355E-15, 1.224646799147353207E-16, -1.000000000000000000 ) ) ;
#204 =( NAMED_UNIT ( * ) SI_UNIT ( $, .STERADIAN. ) SOLID_ANGLE_UNIT ( ) );
#205 = CONICAL_SURFACE ( 'NONE', #95, 1.499999999999995559, 1.221730476396026388 ) ;
#206 = EDGE_CURVE ( 'NONE', #175, #175, #19, .T. ) ;
#207 = CARTESIAN_POINT ( 'NONE',  ( 1.556724219022661894E-15, -5.460253534143031071E-17, 0.4458635369761038136 ) ) ;
#208 = EDGE_LOOP ( 'NONE', ( #160 ) ) ;
#209 = DIRECTION ( 'NONE',  ( 4.293794133377662246E-31, 1.000000000000000000, 1.229791517316362731E-16 ) ) ;
#210 = EDGE_LOOP ( 'NONE', ( #17 ) ) ;
#211 = DIRECTION ( 'NONE',  ( 3.491481338843133355E-15, -1.224646799147353207E-16, 1.000000000000000000 ) ) ;
#212 = APPROVAL_PERSON_ORGANIZATION ( #184, #88, #152 ) ;
#213 = EDGE_LOOP ( 'NONE', ( #142 ) ) ;
#214 = DIRECTION ( 'NONE',  ( 3.491481338843133355E-15, -1.224646799147353207E-16, 1.000000000000000000 ) ) ;
#215 =( NAMED_UNIT ( * ) PLANE_ANGLE_UNIT ( ) SI_UNIT ( $, .RADIAN. ) );
#216 = PLANE ( 'NONE',  #125 ) ;
#217 = APPROVAL_DATE_TIME ( #86, #88 ) ;
#218 = ADVANCED_FACE ( 'NONE', ( #143, #2 ), #193, .T. ) ;
#219 = APPROVAL_ROLE ( '' ) ;
#220 = APPROVAL_STATUS ( 'not_yet_approved' ) ;
#221 = ORGANIZATION ( 'UNSPECIFIED', 'UNSPECIFIED', '' ) ;
#222 = CC_DESIGN_PERSON_AND_ORGANIZATION_ASSIGNMENT ( #167, #101, ( #130 ) ) ;
#223 = ORIENTED_EDGE ( 'NONE', *, *, #136, .F. ) ;
ENDSEC;
END-ISO-10303-21;
