ISO-10303-21;
HEADER;
FILE_DESCRIPTION (( 'STEP AP203' ),
    '1' );
FILE_NAME ('963120.step',
    '2021-10-28T09:23:22',
    ( '' ),
    ( '' ),
    'SwSTEP 2.0',
    'SolidWorks 2019',
    '' );
FILE_SCHEMA (( 'CONFIG_CONTROL_DESIGN' ));
ENDSEC;

DATA;
#1 = SHAPE_DEFINITION_REPRESENTATION ( #150, #35 ) ;
#2 = CC_DESIGN_SECURITY_CLASSIFICATION ( #94, ( #36 ) ) ;
#3 = APPROVAL_PERSON_ORGANIZATION ( #110, #38, #180 ) ;
#4 = CC_DESIGN_APPROVAL ( #106, ( #99 ) ) ;
#5 = DIRECTION ( 'NONE',  ( -3.491481338843133355E-15, 1.229791517316362731E-16, -1.000000000000000000 ) ) ;
#6 = PERSON_AND_ORGANIZATION_ROLE ( 'classification_officer' ) ;
#7 = DATE_AND_TIME ( #218, #138 ) ;
#8 = COORDINATED_UNIVERSAL_TIME_OFFSET ( 1, 0, .AHEAD. ) ;
#9 = LOCAL_TIME ( 11, 23, 22.00000000000000000, #8 ) ;
#10 = EDGE_LOOP ( 'NONE', ( #127 ) ) ;
#11 = PERSON_AND_ORGANIZATION ( #139, #168 ) ;
#12 = DATE_TIME_ROLE ( 'creation_date' ) ;
#13 = DIRECTION ( 'NONE',  ( 0.0000000000000000000, 1.000000000000000000, 0.0000000000000000000 ) ) ;
#14 = DIRECTION ( 'NONE',  ( -3.491481338843133355E-15, 1.224646799147353207E-16, -1.000000000000000000 ) ) ;
#15 = AXIS2_PLACEMENT_3D ( 'NONE', #178, #194, #87 ) ;
#16 = FACE_BOUND ( 'NONE', #105, .T. ) ;
#17 = DIRECTION ( 'NONE',  ( -3.491481338843133355E-15, 1.229791517316362731E-16, -1.000000000000000000 ) ) ;
#18 = APPROVAL_PERSON_ORGANIZATION ( #11, #106, #24 ) ;
#19 = LOCAL_TIME ( 11, 23, 22.00000000000000000, #125 ) ;
#20 = CC_DESIGN_PERSON_AND_ORGANIZATION_ASSIGNMENT ( #107, #128, ( #34 ) ) ;
#21 = FACE_OUTER_BOUND ( 'NONE', #121, .T. ) ;
#22 = PERSON_AND_ORGANIZATION ( #139, #168 ) ;
#23 = ORIENTED_EDGE ( 'NONE', *, *, #153, .T. ) ;
#24 = APPROVAL_ROLE ( '' ) ;
#25 = COORDINATED_UNIVERSAL_TIME_OFFSET ( 1, 0, .AHEAD. ) ;
#26 = SECURITY_CLASSIFICATION_LEVEL ( 'unclassified' ) ;
#27 = AXIS2_PLACEMENT_3D ( 'NONE', #186, #81, #31 ) ;
#28 = ORIENTED_EDGE ( 'NONE', *, *, #204, .T. ) ;
#29 = CARTESIAN_POINT ( 'NONE',  ( 5.237222008264700033E-14, 1.199999999999998179, 15.00000000000000000 ) ) ;
#30 = CONICAL_SURFACE ( 'NONE', #177, 1.499999999999995559, 1.221730476396026388 ) ;
#31 = DIRECTION ( 'NONE',  ( 0.0000000000000000000, 1.000000000000000000, 0.0000000000000000000 ) ) ;
#32 = ADVANCED_FACE ( 'NONE', ( #21, #90 ), #85, .T. ) ;
#33 = DIRECTION ( 'NONE',  ( 3.491481338843133355E-15, -1.224646799147353207E-16, 1.000000000000000000 ) ) ;
#34 = PRODUCT ( '963120', '963120', '', ( #195 ) ) ;
#35 = ADVANCED_BREP_SHAPE_REPRESENTATION ( '963120', ( #189, #37, #118 ), #98 ) ;
#36 = PRODUCT_DEFINITION_FORMATION_WITH_SPECIFIED_SOURCE ( 'ANY', '', #34, .NOT_KNOWN. ) ;
#37 = MANIFOLD_SOLID_BREP ( 'Corps-Déplacer/Copier1[2]', #163 ) ;
#38 = APPROVAL ( #102, 'UNSPECIFIED' ) ;
#39 = DATE_AND_TIME ( #84, #116 ) ;
#40 = ADVANCED_FACE ( 'NONE', ( #140 ), #58, .T. ) ;
#41 = CIRCLE ( 'NONE', #109, 1.499999999999999778 ) ;
#42 = ORIENTED_EDGE ( 'NONE', *, *, #124, .F. ) ;
#43 = CALENDAR_DATE ( 2021, 28, 10 ) ;
#44 = AXIS2_PLACEMENT_3D ( 'NONE', #205, #223, #64 ) ;
#45 = APPLICATION_PROTOCOL_DEFINITION ( 'international standard', 'config_control_design', 1994, #191 ) ;
#46 = EDGE_LOOP ( 'NONE', ( #28 ) ) ;
#47 = CARTESIAN_POINT ( 'NONE',  ( 1.326762908760390423E-13, 1.199999999999995293, 38.00000000000000000 ) ) ;
#48 = CALENDAR_DATE ( 2021, 28, 10 ) ;
#49 = AXIS2_PLACEMENT_3D ( 'NONE', #91, #217, #50 ) ;
#50 = DIRECTION ( 'NONE',  ( 0.0000000000000000000, 1.000000000000000000, 0.0000000000000000000 ) ) ;
#51 = FACE_OUTER_BOUND ( 'NONE', #10, .T. ) ;
#52 = COORDINATED_UNIVERSAL_TIME_OFFSET ( 1, 0, .AHEAD. ) ;
#53 = VERTEX_POINT ( 'NONE', #29 ) ;
#54 = FACE_OUTER_BOUND ( 'NONE', #126, .T. ) ;
#55 = EDGE_CURVE ( 'NONE', #170, #170, #149, .T. ) ;
#56 = AXIS2_PLACEMENT_3D ( 'NONE', #65, #112, #206 ) ;
#57 = ORIENTED_EDGE ( 'NONE', *, *, #55, .T. ) ;
#58 = PLANE ( 'NONE',  #15 ) ;
#59 = CALENDAR_DATE ( 2021, 28, 10 ) ;
#60 =( NAMED_UNIT ( * ) SI_UNIT ( $, .STERADIAN. ) SOLID_ANGLE_UNIT ( ) );
#61 = CARTESIAN_POINT ( 'NONE',  ( 0.0000000000000000000, 0.0000000000000000000, 0.0000000000000000000 ) ) ;
#62 = EDGE_LOOP ( 'NONE', ( #162 ) ) ;
#63 = FACE_OUTER_BOUND ( 'NONE', #76, .T. ) ;
#64 = DIRECTION ( 'NONE',  ( 4.275831445896958607E-31, 1.000000000000000000, 1.224646799147353207E-16 ) ) ;
#65 = CARTESIAN_POINT ( 'NONE',  ( 0.0000000000000000000, 0.0000000000000000000, 0.0000000000000000000 ) ) ;
#66 = DIRECTION ( 'NONE',  ( -3.491481338843133355E-15, 1.224646799147353207E-16, -1.000000000000000000 ) ) ;
#67 = CC_DESIGN_PERSON_AND_ORGANIZATION_ASSIGNMENT ( #74, #165, ( #99 ) ) ;
#68 = CC_DESIGN_PERSON_AND_ORGANIZATION_ASSIGNMENT ( #22, #141, ( #36 ) ) ;
#69 = AXIS2_PLACEMENT_3D ( 'NONE', #157, #5, #71 ) ;
#70 = ADVANCED_FACE ( 'NONE', ( #148, #63 ), #135, .T. ) ;
#71 = DIRECTION ( 'NONE',  ( 4.293794133377661370E-31, 1.000000000000000000, 1.229791517316362731E-16 ) ) ;
#72 = APPROVAL_DATE_TIME ( #7, #106 ) ;
#73 = ORIENTED_EDGE ( 'NONE', *, *, #164, .T. ) ;
#74 = PERSON_AND_ORGANIZATION ( #139, #168 ) ;
#75 = CC_DESIGN_APPROVAL ( #38, ( #36 ) ) ;
#76 = EDGE_LOOP ( 'NONE', ( #57 ) ) ;
#77 = PERSON_AND_ORGANIZATION ( #139, #168 ) ;
#78 = DIRECTION ( 'NONE',  ( -3.491481338843133355E-15, 1.224646799147353207E-16, -1.000000000000000000 ) ) ;
#79 = CYLINDRICAL_SURFACE ( 'NONE', #56, 1.499999999999998446 ) ;
#80 = DIRECTION ( 'NONE',  ( 0.0000000000000000000, -1.000000000000000000, 0.0000000000000000000 ) ) ;
#81 = DIRECTION ( 'NONE',  ( -3.491481338843133355E-15, 1.229791517316362731E-16, -1.000000000000000000 ) ) ;
#82 = CIRCLE ( 'NONE', #174, 1.200000000000000178 ) ;
#83 = APPROVAL_ROLE ( '' ) ;
#84 = CALENDAR_DATE ( 2021, 28, 10 ) ;
#85 = CYLINDRICAL_SURFACE ( 'NONE', #69, 1.200000000000000178 ) ;
#86 = PERSON_AND_ORGANIZATION ( #139, #168 ) ;
#87 = DIRECTION ( 'NONE',  ( -4.275831445896958607E-31, -1.000000000000000000, -1.224646799147353207E-16 ) ) ;
#88 = APPROVAL_STATUS ( 'not_yet_approved' ) ;
#89 = DATE_AND_TIME ( #48, #95 ) ;
#90 = FACE_OUTER_BOUND ( 'NONE', #119, .T. ) ;
#91 = CARTESIAN_POINT ( 'NONE',  ( 1.326762908760390423E-13, -4.653657836759941941E-15, 38.00000000000000000 ) ) ;
#92 = ADVANCED_FACE ( 'NONE', ( #51, #167 ), #79, .T. ) ;
#93 = CARTESIAN_POINT ( 'NONE',  ( 1.906192921252232855E-15, -6.686024735685322183E-17, 0.5459553513993090634 ) ) ;
#94 = SECURITY_CLASSIFICATION ( '', '', #26 ) ;
#95 = LOCAL_TIME ( 11, 23, 22.00000000000000000, #25 ) ;
#96 = DIRECTION ( 'NONE',  ( 0.0000000000000000000, 1.000000000000000000, 0.0000000000000000000 ) ) ;
#97 = CARTESIAN_POINT ( 'NONE',  ( 5.628133580771931983E-14, -1.982376608734799931E-15, 16.11961524227065468 ) ) ;
#98 =( GEOMETRIC_REPRESENTATION_CONTEXT ( 3 ) GLOBAL_UNCERTAINTY_ASSIGNED_CONTEXT ( ( #169 ) ) GLOBAL_UNIT_ASSIGNED_CONTEXT ( ( #161, #160, #60 ) ) REPRESENTATION_CONTEXT ( 'NONE', 'WORKASPACE' ) );
#99 = PRODUCT_DEFINITION ( 'UNKNOWN', '', #36, #184 ) ;
#100 = CLOSED_SHELL ( 'NONE', ( #92, #173, #190, #70, #137 ) ) ;
#101 = ADVANCED_FACE ( 'NONE', ( #111 ), #30, .T. ) ;
#102 = APPROVAL_STATUS ( 'not_yet_approved' ) ;
#103 = ORIENTED_EDGE ( 'NONE', *, *, #209, .T. ) ;
#104 = DATE_AND_TIME ( #59, #9 ) ;
#105 = EDGE_LOOP ( 'NONE', ( #103 ) ) ;
#106 = APPROVAL ( #88, 'UNSPECIFIED' ) ;
#107 = PERSON_AND_ORGANIZATION ( #139, #168 ) ;
#108 = EDGE_LOOP ( 'NONE', ( #159 ) ) ;
#109 = AXIS2_PLACEMENT_3D ( 'NONE', #166, #78, #13 ) ;
#110 = PERSON_AND_ORGANIZATION ( #139, #168 ) ;
#111 = FACE_OUTER_BOUND ( 'NONE', #46, .T. ) ;
#112 = DIRECTION ( 'NONE',  ( -3.491481338843133355E-15, 1.224646799147353207E-16, -1.000000000000000000 ) ) ;
#113 = DIRECTION ( 'NONE',  ( -5.135813185032644414E-31, -1.000000000000000000, -1.445602896647343601E-16 ) ) ;
#114 = AXIS2_PLACEMENT_3D ( 'NONE', #146, #14, #203 ) ;
#115 = DIRECTION ( 'NONE',  ( 3.491481338843133355E-15, -1.224646799147353207E-16, 1.000000000000000000 ) ) ;
#116 = LOCAL_TIME ( 11, 23, 22.00000000000000000, #52 ) ;
#117 = CC_DESIGN_DATE_AND_TIME_ASSIGNMENT ( #89, #12, ( #99 ) ) ;
#118 = AXIS2_PLACEMENT_3D ( 'NONE', #61, #193, #120 ) ;
#119 = EDGE_LOOP ( 'NONE', ( #181 ) ) ;
#120 = DIRECTION ( 'NONE',  ( 1.000000000000000000, 0.0000000000000000000, 0.0000000000000000000 ) ) ;
#121 = EDGE_LOOP ( 'NONE', ( #23 ) ) ;
#122 = VERTEX_POINT ( 'NONE', #143 ) ;
#123 = DIRECTION ( 'NONE',  ( -3.491481338843133355E-15, 1.229791517316362731E-16, -1.000000000000000000 ) ) ;
#124 = EDGE_CURVE ( 'NONE', #151, #151, #41, .T. ) ;
#125 = COORDINATED_UNIVERSAL_TIME_OFFSET ( 1, 0, .AHEAD. ) ;
#126 = EDGE_LOOP ( 'NONE', ( #73 ) ) ;
#127 = ORIENTED_EDGE ( 'NONE', *, *, #55, .F. ) ;
#128 = PERSON_AND_ORGANIZATION_ROLE ( 'design_owner' ) ;
#129 = APPROVAL ( #216, 'UNSPECIFIED' ) ;
#130 = CARTESIAN_POINT ( 'NONE',  ( 5.237222008264700033E-14, -1.844687275974544269E-15, 15.00000000000000000 ) ) ;
#131 = APPROVAL_DATE_TIME ( #39, #129 ) ;
#132 = CARTESIAN_POINT ( 'NONE',  ( 5.628133580771931983E-14, 1.499999999999996669, 16.11961524227065468 ) ) ;
#133 = PLANE ( 'NONE',  #136 ) ;
#134 = DIRECTION ( 'NONE',  ( 3.491481338843133355E-15, -1.229791517316362731E-16, 1.000000000000000000 ) ) ;
#135 = CONICAL_SURFACE ( 'NONE', #182, 1.499999999999998668, 0.2617993877991499074 ) ;
#136 = AXIS2_PLACEMENT_3D ( 'NONE', #185, #115, #172 ) ;
#137 = ADVANCED_FACE ( 'NONE', ( #54 ), #133, .F. ) ;
#138 = LOCAL_TIME ( 11, 23, 22.00000000000000000, #147 ) ;
#139 = PERSON ( 'UNSPECIFIED', 'UNSPECIFIED', 'UNSPECIFIED', ('UNSPECIFIED'), ('UNSPECIFIED'), ('UNSPECIFIED') ) ;
#140 = FACE_OUTER_BOUND ( 'NONE', #142, .T. ) ;
#141 = PERSON_AND_ORGANIZATION_ROLE ( 'creator' ) ;
#142 = EDGE_LOOP ( 'NONE', ( #198 ) ) ;
#143 = CARTESIAN_POINT ( 'NONE',  ( 1.524954337001790426E-15, -1.200000000000000178, 0.4367642811194483721 ) ) ;
#144 = APPROVAL_PERSON_ORGANIZATION ( #77, #129, #83 ) ;
#145 = VERTEX_POINT ( 'NONE', #47 ) ;
#146 = CARTESIAN_POINT ( 'NONE',  ( 1.524954337001791017E-15, -5.348819788548274140E-17, 0.4367642811194485386 ) ) ;
#147 = COORDINATED_UNIVERSAL_TIME_OFFSET ( 1, 0, .AHEAD. ) ;
#148 = FACE_BOUND ( 'NONE', #200, .T. ) ;
#149 = CIRCLE ( 'NONE', #202, 1.499999999999998668 ) ;
#150 = PRODUCT_DEFINITION_SHAPE ( 'NONE', 'NONE',  #99 ) ;
#151 = VERTEX_POINT ( 'NONE', #221 ) ;
#152 = VERTEX_POINT ( 'NONE', #183 ) ;
#153 = EDGE_CURVE ( 'NONE', #152, #152, #187, .T. ) ;
#154 = PLANE ( 'NONE',  #44 ) ;
#155 = CIRCLE ( 'NONE', #49, 1.199999999999999956 ) ;
#156 = CC_DESIGN_PERSON_AND_ORGANIZATION_ASSIGNMENT ( #86, #158, ( #36 ) ) ;
#157 = CARTESIAN_POINT ( 'NONE',  ( 0.0000000000000000000, 0.0000000000000000000, 0.0000000000000000000 ) ) ;
#158 = PERSON_AND_ORGANIZATION_ROLE ( 'design_supplier' ) ;
#159 = ORIENTED_EDGE ( 'NONE', *, *, #124, .T. ) ;
#160 =( NAMED_UNIT ( * ) PLANE_ANGLE_UNIT ( ) SI_UNIT ( $, .RADIAN. ) );
#161 =( LENGTH_UNIT ( ) NAMED_UNIT ( * ) SI_UNIT ( .MILLI., .METRE. ) );
#162 = ORIENTED_EDGE ( 'NONE', *, *, #209, .F. ) ;
#163 = CLOSED_SHELL ( 'NONE', ( #40, #32, #101 ) ) ;
#164 = EDGE_CURVE ( 'NONE', #53, #53, #82, .T. ) ;
#165 = PERSON_AND_ORGANIZATION_ROLE ( 'creator' ) ;
#166 = CARTESIAN_POINT ( 'NONE',  ( 1.316288464743861212E-13, -4.616918432785521081E-15, 37.69999999999999574 ) ) ;
#167 = FACE_OUTER_BOUND ( 'NONE', #108, .T. ) ;
#168 = ORGANIZATION ( 'UNSPECIFIED', 'UNSPECIFIED', '' ) ;
#169 = UNCERTAINTY_MEASURE_WITH_UNIT (LENGTH_MEASURE( 1.000000000000000082E-05 ), #161, 'distance_accuracy_value', 'NONE');
#170 = VERTEX_POINT ( 'NONE', #132 ) ;
#171 = APPLICATION_CONTEXT ( 'configuration controlled 3d designs of mechanical parts and assemblies' ) ;
#172 = DIRECTION ( 'NONE',  ( -4.275831445896958607E-31, -1.000000000000000000, -1.224646799147353207E-16 ) ) ;
#173 = ADVANCED_FACE ( 'NONE', ( #201, #16 ), #212, .T. ) ;
#174 = AXIS2_PLACEMENT_3D ( 'NONE', #130, #17, #96 ) ;
#175 = CC_DESIGN_DATE_AND_TIME_ASSIGNMENT ( #104, #179, ( #94 ) ) ;
#176 = APPROVAL_DATE_TIME ( #197, #38 ) ;
#177 = AXIS2_PLACEMENT_3D ( 'NONE', #93, #33, #113 ) ;
#178 = CARTESIAN_POINT ( 'NONE',  ( 5.237222008264700033E-14, 1.124819836996388553E-32, 15.00000000000000000 ) ) ;
#179 = DATE_TIME_ROLE ( 'classification_date' ) ;
#180 = APPROVAL_ROLE ( '' ) ;
#181 = ORIENTED_EDGE ( 'NONE', *, *, #204, .F. ) ;
#182 = AXIS2_PLACEMENT_3D ( 'NONE', #97, #134, #80 ) ;
#183 = CARTESIAN_POINT ( 'NONE',  ( 5.237222008264700033E-14, 1.199999999999998179, 15.00000000000000000 ) ) ;
#184 = DESIGN_CONTEXT ( 'detailed design', #171, 'design' ) ;
#185 = CARTESIAN_POINT ( 'NONE',  ( 5.237222008264700033E-14, 1.124819836996388553E-32, 15.00000000000000000 ) ) ;
#186 = CARTESIAN_POINT ( 'NONE',  ( 5.237222008264700033E-14, -1.844687275974544269E-15, 15.00000000000000000 ) ) ;
#187 = CIRCLE ( 'NONE', #27, 1.200000000000000178 ) ;
#188 = DIRECTION ( 'NONE',  ( 0.0000000000000000000, 1.000000000000000000, 0.0000000000000000000 ) ) ;
#189 = MANIFOLD_SOLID_BREP ( 'Corps-Déplacer/Copier1[1]', #100 ) ;
#190 = ADVANCED_FACE ( 'NONE', ( #219 ), #154, .F. ) ;
#191 = APPLICATION_CONTEXT ( 'configuration controlled 3d designs of mechanical parts and assemblies' ) ;
#192 = CC_DESIGN_APPROVAL ( #129, ( #94 ) ) ;
#193 = DIRECTION ( 'NONE',  ( 0.0000000000000000000, 0.0000000000000000000, 1.000000000000000000 ) ) ;
#194 = DIRECTION ( 'NONE',  ( 3.491481338843133355E-15, -1.224646799147353207E-16, 1.000000000000000000 ) ) ;
#195 = MECHANICAL_CONTEXT ( 'NONE', #191, 'mechanical' ) ;
#196 = DIRECTION ( 'NONE',  ( 0.0000000000000000000, 1.000000000000000000, 0.0000000000000000000 ) ) ;
#197 = DATE_AND_TIME ( #43, #19 ) ;
#198 = ORIENTED_EDGE ( 'NONE', *, *, #153, .F. ) ;
#199 = APPLICATION_PROTOCOL_DEFINITION ( 'international standard', 'config_control_design', 1994, #171 ) ;
#200 = EDGE_LOOP ( 'NONE', ( #215 ) ) ;
#201 = FACE_OUTER_BOUND ( 'NONE', #213, .T. ) ;
#202 = AXIS2_PLACEMENT_3D ( 'NONE', #211, #123, #196 ) ;
#203 = DIRECTION ( 'NONE',  ( -4.814824860968088757E-31, -1.000000000000000000, -1.355252715606880296E-16 ) ) ;
#204 = EDGE_CURVE ( 'NONE', #122, #122, #220, .T. ) ;
#205 = CARTESIAN_POINT ( 'NONE',  ( 1.326762908760390423E-13, 8.998558695971077224E-33, 38.00000000000000000 ) ) ;
#206 = DIRECTION ( 'NONE',  ( 4.275831445896958607E-31, 1.000000000000000000, 1.224646799147353207E-16 ) ) ;
#207 = PRODUCT_RELATED_PRODUCT_CATEGORY ( 'detail', '', ( #34 ) ) ;
#208 = AXIS2_PLACEMENT_3D ( 'NONE', #222, #66, #188 ) ;
#209 = EDGE_CURVE ( 'NONE', #145, #145, #155, .T. ) ;
#210 = PERSON_AND_ORGANIZATION ( #139, #168 ) ;
#211 = CARTESIAN_POINT ( 'NONE',  ( 5.628133580771931983E-14, -1.982376608734799931E-15, 16.11961524227065468 ) ) ;
#212 = CONICAL_SURFACE ( 'NONE', #208, 1.199999999999999956, 0.7853981633974453924 ) ;
#213 = EDGE_LOOP ( 'NONE', ( #42 ) ) ;
#214 = CC_DESIGN_PERSON_AND_ORGANIZATION_ASSIGNMENT ( #210, #6, ( #94 ) ) ;
#215 = ORIENTED_EDGE ( 'NONE', *, *, #164, .F. ) ;
#216 = APPROVAL_STATUS ( 'not_yet_approved' ) ;
#217 = DIRECTION ( 'NONE',  ( -3.491481338843133355E-15, 1.224646799147353207E-16, -1.000000000000000000 ) ) ;
#218 = CALENDAR_DATE ( 2021, 28, 10 ) ;
#219 = FACE_OUTER_BOUND ( 'NONE', #62, .T. ) ;
#220 = CIRCLE ( 'NONE', #114, 1.200000000000000178 ) ;
#221 = CARTESIAN_POINT ( 'NONE',  ( 1.316288464743861212E-13, 1.499999999999995337, 37.69999999999999574 ) ) ;
#222 = CARTESIAN_POINT ( 'NONE',  ( 1.326762908760390423E-13, -4.653657836759941941E-15, 38.00000000000000000 ) ) ;
#223 = DIRECTION ( 'NONE',  ( -3.491481338843133355E-15, 1.224646799147353207E-16, -1.000000000000000000 ) ) ;
ENDSEC;
END-ISO-10303-21;
