ISO-10303-21;
HEADER;
FILE_DESCRIPTION (( 'STEP AP203' ),
    '1' );
FILE_NAME ('963119.step',
    '2021-10-28T09:23:22',
    ( '' ),
    ( '' ),
    'SwSTEP 2.0',
    'SolidWorks 2019',
    '' );
FILE_SCHEMA (( 'CONFIG_CONTROL_DESIGN' ));
ENDSEC;

DATA;
#1 = CC_DESIGN_APPROVAL ( #187, ( #223 ) ) ;
#2 = APPROVAL_STATUS ( 'not_yet_approved' ) ;
#3 = DATE_TIME_ROLE ( 'classification_date' ) ;
#4 = CONICAL_SURFACE ( 'NONE', #181, 1.499999999999995559, 1.221730476396026388 ) ;
#5 = PERSON_AND_ORGANIZATION ( #75, #42 ) ;
#6 = PERSON_AND_ORGANIZATION ( #75, #42 ) ;
#7 = ADVANCED_FACE ( 'NONE', ( #13 ), #87, .T. ) ;
#8 = DIRECTION ( 'NONE',  ( 0.0000000000000000000, 1.000000000000000000, 0.0000000000000000000 ) ) ;
#9 = AXIS2_PLACEMENT_3D ( 'NONE', #143, #141, #211 ) ;
#10 = EDGE_LOOP ( 'NONE', ( #156 ) ) ;
#11 = ORIENTED_EDGE ( 'NONE', *, *, #27, .T. ) ;
#12 = DIRECTION ( 'NONE',  ( -4.275831445896958607E-31, -1.000000000000000000, -1.224646799147353207E-16 ) ) ;
#13 = FACE_OUTER_BOUND ( 'NONE', #51, .T. ) ;
#14 = DIRECTION ( 'NONE',  ( -3.491481338843133355E-15, 1.229791517316362731E-16, -1.000000000000000000 ) ) ;
#15 = VERTEX_POINT ( 'NONE', #163 ) ;
#16 = AXIS2_PLACEMENT_3D ( 'NONE', #207, #14, #194 ) ;
#17 = CARTESIAN_POINT ( 'NONE',  ( 5.660709545147535487E-14, 1.499999999999996669, 16.21291651245987708 ) ) ;
#18 = DIRECTION ( 'NONE',  ( 0.0000000000000000000, -1.000000000000000000, 0.0000000000000000000 ) ) ;
#19 = COORDINATED_UNIVERSAL_TIME_OFFSET ( 1, 0, .AHEAD. ) ;
#20 = SHAPE_DEFINITION_REPRESENTATION ( #186, #204 ) ;
#21 = EDGE_CURVE ( 'NONE', #32, #32, #142, .T. ) ;
#22 = APPROVAL_DATE_TIME ( #215, #187 ) ;
#23 = APPROVAL_DATE_TIME ( #95, #110 ) ;
#24 = FACE_OUTER_BOUND ( 'NONE', #165, .T. ) ;
#25 = AXIS2_PLACEMENT_3D ( 'NONE', #81, #52, #136 ) ;
#26 = DIRECTION ( 'NONE',  ( -3.491481338843133355E-15, 1.229791517316362731E-16, -1.000000000000000000 ) ) ;
#27 = EDGE_CURVE ( 'NONE', #35, #35, #40, .T. ) ;
#28 = ORIENTED_EDGE ( 'NONE', *, *, #21, .F. ) ;
#29 = PRODUCT ( '963119', '963119', '', ( #31 ) ) ;
#30 = EDGE_LOOP ( 'NONE', ( #118 ) ) ;
#31 = MECHANICAL_CONTEXT ( 'NONE', #107, 'mechanical' ) ;
#32 = VERTEX_POINT ( 'NONE', #188 ) ;
#33 = AXIS2_PLACEMENT_3D ( 'NONE', #65, #199, #8 ) ;
#34 = CONICAL_SURFACE ( 'NONE', #149, 1.499999999999998668, 0.2617993877991497409 ) ;
#35 = VERTEX_POINT ( 'NONE', #91 ) ;
#36 = EDGE_CURVE ( 'NONE', #89, #89, #44, .T. ) ;
#37 = DIRECTION ( 'NONE',  ( -4.275831445896958607E-31, -1.000000000000000000, -1.224646799147353207E-16 ) ) ;
#38 = CC_DESIGN_DATE_AND_TIME_ASSIGNMENT ( #114, #3, ( #86 ) ) ;
#39 = PERSON_AND_ORGANIZATION_ROLE ( 'classification_officer' ) ;
#40 = CIRCLE ( 'NONE', #127, 1.199999999999999956 ) ;
#41 = COORDINATED_UNIVERSAL_TIME_OFFSET ( 1, 0, .AHEAD. ) ;
#42 = ORGANIZATION ( 'UNSPECIFIED', 'UNSPECIFIED', '' ) ;
#43 = COORDINATED_UNIVERSAL_TIME_OFFSET ( 1, 0, .AHEAD. ) ;
#44 = CIRCLE ( 'NONE', #191, 1.175000000000000266 ) ;
#45 = ADVANCED_FACE ( 'NONE', ( #135, #202 ), #53, .T. ) ;
#46 = CARTESIAN_POINT ( 'NONE',  ( 1.493184454980920733E-15, -5.237386042953518441E-17, 0.4276650252627934856 ) ) ;
#47 = APPLICATION_CONTEXT ( 'configuration controlled 3d designs of mechanical parts and assemblies' ) ;
#48 = CARTESIAN_POINT ( 'NONE',  ( 1.316288464743861212E-13, -4.616918432785521081E-15, 37.69999999999999574 ) ) ;
#49 = AXIS2_PLACEMENT_3D ( 'NONE', #219, #185, #12 ) ;
#50 = CC_DESIGN_PERSON_AND_ORGANIZATION_ASSIGNMENT ( #76, #198, ( #131 ) ) ;
#51 = EDGE_LOOP ( 'NONE', ( #67 ) ) ;
#52 = DIRECTION ( 'NONE',  ( -3.491481338843133355E-15, 1.224646799147353207E-16, -1.000000000000000000 ) ) ;
#53 = CYLINDRICAL_SURFACE ( 'NONE', #25, 1.499999999999998446 ) ;
#54 = FACE_OUTER_BOUND ( 'NONE', #153, .T. ) ;
#55 = CARTESIAN_POINT ( 'NONE',  ( 5.660709545147535487E-14, -1.993850719798154273E-15, 16.21291651245987708 ) ) ;
#56 = AXIS2_PLACEMENT_3D ( 'NONE', #167, #155, #70 ) ;
#57 = FACE_OUTER_BOUND ( 'NONE', #10, .T. ) ;
#58 = SECURITY_CLASSIFICATION_LEVEL ( 'unclassified' ) ;
#59 = APPROVAL_STATUS ( 'not_yet_approved' ) ;
#60 = LOCAL_TIME ( 11, 23, 22.00000000000000000, #19 ) ;
#61 = DATE_AND_TIME ( #112, #96 ) ;
#62 = CC_DESIGN_PERSON_AND_ORGANIZATION_ASSIGNMENT ( #5, #93, ( #29 ) ) ;
#63 = AXIS2_PLACEMENT_3D ( 'NONE', #217, #26, #100 ) ;
#64 = CARTESIAN_POINT ( 'NONE',  ( 1.906192921252232855E-15, -6.686024735685322183E-17, 0.5459553513993090634 ) ) ;
#65 = CARTESIAN_POINT ( 'NONE',  ( 5.237222008264700033E-14, -1.844687275974544269E-15, 15.00000000000000000 ) ) ;
#66 = EDGE_CURVE ( 'NONE', #15, #15, #92, .T. ) ;
#67 = ORIENTED_EDGE ( 'NONE', *, *, #148, .F. ) ;
#68 = APPROVAL_PERSON_ORGANIZATION ( #6, #187, #129 ) ;
#69 = DIRECTION ( 'NONE',  ( -3.491481338843133355E-15, 1.224646799147353207E-16, -1.000000000000000000 ) ) ;
#70 = DIRECTION ( 'NONE',  ( 0.0000000000000000000, 1.000000000000000000, 0.0000000000000000000 ) ) ;
#71 = DIRECTION ( 'NONE',  ( 3.491481338843133355E-15, -1.229791517316362731E-16, 1.000000000000000000 ) ) ;
#72 = CIRCLE ( 'NONE', #63, 1.499999999999998668 ) ;
#73 = LOCAL_TIME ( 11, 23, 22.00000000000000000, #41 ) ;
#74 = EDGE_CURVE ( 'NONE', #109, #109, #72, .T. ) ;
#75 = PERSON ( 'UNSPECIFIED', 'UNSPECIFIED', 'UNSPECIFIED', ('UNSPECIFIED'), ('UNSPECIFIED'), ('UNSPECIFIED') ) ;
#76 = PERSON_AND_ORGANIZATION ( #75, #42 ) ;
#77 = ADVANCED_FACE ( 'NONE', ( #121, #157 ), #201, .T. ) ;
#78 = CIRCLE ( 'NONE', #16, 1.175000000000000266 ) ;
#79 = APPROVAL ( #59, 'UNSPECIFIED' ) ;
#80 = CALENDAR_DATE ( 2021, 28, 10 ) ;
#81 = CARTESIAN_POINT ( 'NONE',  ( 0.0000000000000000000, 0.0000000000000000000, 0.0000000000000000000 ) ) ;
#82 = APPROVAL_PERSON_ORGANIZATION ( #196, #110, #178 ) ;
#83 = EDGE_LOOP ( 'NONE', ( #98 ) ) ;
#84 = ORIENTED_EDGE ( 'NONE', *, *, #66, .F. ) ;
#85 = DIRECTION ( 'NONE',  ( -3.491481338843133355E-15, 1.224646799147353207E-16, -1.000000000000000000 ) ) ;
#86 = SECURITY_CLASSIFICATION ( '', '', #58 ) ;
#87 = PLANE ( 'NONE',  #49 ) ;
#88 = CARTESIAN_POINT ( 'NONE',  ( 5.237222008264700033E-14, 1.124819836996388553E-32, 15.00000000000000000 ) ) ;
#89 = VERTEX_POINT ( 'NONE', #174 ) ;
#90 = DIRECTION ( 'NONE',  ( 4.293794133377662246E-31, 1.000000000000000000, 1.229791517316362731E-16 ) ) ;
#91 = CARTESIAN_POINT ( 'NONE',  ( 1.326762908760390423E-13, 1.199999999999995293, 38.00000000000000000 ) ) ;
#92 = CIRCLE ( 'NONE', #138, 1.499999999999999778 ) ;
#93 = PERSON_AND_ORGANIZATION_ROLE ( 'design_owner' ) ;
#94 = APPLICATION_PROTOCOL_DEFINITION ( 'international standard', 'config_control_design', 1994, #47 ) ;
#95 = DATE_AND_TIME ( #180, #60 ) ;
#96 = LOCAL_TIME ( 11, 23, 22.00000000000000000, #43 ) ;
#97 = MANIFOLD_SOLID_BREP ( 'Corps-Déplacer/Copier1[2]', #116 ) ;
#98 = ORIENTED_EDGE ( 'NONE', *, *, #66, .T. ) ;
#99 = MANIFOLD_SOLID_BREP ( 'Corps-Déplacer/Copier1[1]', #130 ) ;
#100 = DIRECTION ( 'NONE',  ( 0.0000000000000000000, 1.000000000000000000, 0.0000000000000000000 ) ) ;
#101 = EDGE_LOOP ( 'NONE', ( #120 ) ) ;
#102 = ADVANCED_FACE ( 'NONE', ( #24 ), #4, .T. ) ;
#103 = EDGE_LOOP ( 'NONE', ( #28 ) ) ;
#104 = CC_DESIGN_APPROVAL ( #110, ( #86 ) ) ;
#105 =( GEOMETRIC_REPRESENTATION_CONTEXT ( 3 ) GLOBAL_UNCERTAINTY_ASSIGNED_CONTEXT ( ( #213 ) ) GLOBAL_UNIT_ASSIGNED_CONTEXT ( ( #123, #160, #222 ) ) REPRESENTATION_CONTEXT ( 'NONE', 'WORKASPACE' ) );
#106 = CARTESIAN_POINT ( 'NONE',  ( 0.0000000000000000000, 0.0000000000000000000, 0.0000000000000000000 ) ) ;
#107 = APPLICATION_CONTEXT ( 'configuration controlled 3d designs of mechanical parts and assemblies' ) ;
#108 = AXIS2_PLACEMENT_3D ( 'NONE', #206, #171, #209 ) ;
#109 = VERTEX_POINT ( 'NONE', #17 ) ;
#110 = APPROVAL ( #2, 'UNSPECIFIED' ) ;
#111 = PLANE ( 'NONE',  #177 ) ;
#112 = CALENDAR_DATE ( 2021, 28, 10 ) ;
#113 = PERSON_AND_ORGANIZATION ( #75, #42 ) ;
#114 = DATE_AND_TIME ( #176, #193 ) ;
#115 = COORDINATED_UNIVERSAL_TIME_OFFSET ( 1, 0, .AHEAD. ) ;
#116 = CLOSED_SHELL ( 'NONE', ( #7, #164, #102 ) ) ;
#117 = CALENDAR_DATE ( 2021, 28, 10 ) ;
#118 = ORIENTED_EDGE ( 'NONE', *, *, #36, .F. ) ;
#119 = CC_DESIGN_DATE_AND_TIME_ASSIGNMENT ( #61, #212, ( #223 ) ) ;
#120 = ORIENTED_EDGE ( 'NONE', *, *, #21, .T. ) ;
#121 = FACE_OUTER_BOUND ( 'NONE', #166, .T. ) ;
#122 = APPLICATION_PROTOCOL_DEFINITION ( 'international standard', 'config_control_design', 1994, #107 ) ;
#123 =( LENGTH_UNIT ( ) NAMED_UNIT ( * ) SI_UNIT ( .MILLI., .METRE. ) );
#124 = CC_DESIGN_SECURITY_CLASSIFICATION ( #86, ( #131 ) ) ;
#125 = APPROVAL_ROLE ( '' ) ;
#126 = PERSON_AND_ORGANIZATION ( #75, #42 ) ;
#127 = AXIS2_PLACEMENT_3D ( 'NONE', #133, #85, #132 ) ;
#128 = DATE_AND_TIME ( #80, #205 ) ;
#129 = APPROVAL_ROLE ( '' ) ;
#130 = CLOSED_SHELL ( 'NONE', ( #45, #77, #140, #195, #159 ) ) ;
#131 = PRODUCT_DEFINITION_FORMATION_WITH_SPECIFIED_SOURCE ( 'ANY', '', #29, .NOT_KNOWN. ) ;
#132 = DIRECTION ( 'NONE',  ( 0.0000000000000000000, 1.000000000000000000, 0.0000000000000000000 ) ) ;
#133 = CARTESIAN_POINT ( 'NONE',  ( 1.326762908760390423E-13, -4.653657836759941941E-15, 38.00000000000000000 ) ) ;
#134 = ORIENTED_EDGE ( 'NONE', *, *, #74, .T. ) ;
#135 = FACE_OUTER_BOUND ( 'NONE', #203, .T. ) ;
#136 = DIRECTION ( 'NONE',  ( 4.275831445896958607E-31, 1.000000000000000000, 1.224646799147353207E-16 ) ) ;
#137 = DIRECTION ( 'NONE',  ( 3.491481338843133355E-15, -1.224646799147353207E-16, 1.000000000000000000 ) ) ;
#138 = AXIS2_PLACEMENT_3D ( 'NONE', #48, #184, #216 ) ;
#139 = DIRECTION ( 'NONE',  ( 3.491481338843133355E-15, -1.224646799147353207E-16, 1.000000000000000000 ) ) ;
#140 = ADVANCED_FACE ( 'NONE', ( #208 ), #170, .F. ) ;
#141 = DIRECTION ( 'NONE',  ( 0.0000000000000000000, 0.0000000000000000000, 1.000000000000000000 ) ) ;
#142 = CIRCLE ( 'NONE', #33, 1.175000000000000266 ) ;
#143 = CARTESIAN_POINT ( 'NONE',  ( 0.0000000000000000000, 0.0000000000000000000, 0.0000000000000000000 ) ) ;
#144 = PRODUCT_RELATED_PRODUCT_CATEGORY ( 'detail', '', ( #29 ) ) ;
#145 = DESIGN_CONTEXT ( 'detailed design', #47, 'design' ) ;
#146 = PERSON_AND_ORGANIZATION ( #75, #42 ) ;
#147 = PERSON_AND_ORGANIZATION_ROLE ( 'creator' ) ;
#148 = EDGE_CURVE ( 'NONE', #162, #162, #78, .T. ) ;
#149 = AXIS2_PLACEMENT_3D ( 'NONE', #55, #71, #18 ) ;
#150 = APPROVAL_STATUS ( 'not_yet_approved' ) ;
#151 = PERSON_AND_ORGANIZATION ( #75, #42 ) ;
#152 = CC_DESIGN_PERSON_AND_ORGANIZATION_ASSIGNMENT ( #126, #39, ( #86 ) ) ;
#153 = EDGE_LOOP ( 'NONE', ( #134 ) ) ;
#154 = EDGE_LOOP ( 'NONE', ( #168 ) ) ;
#155 = DIRECTION ( 'NONE',  ( -3.491481338843133355E-15, 1.224646799147353207E-16, -1.000000000000000000 ) ) ;
#156 = ORIENTED_EDGE ( 'NONE', *, *, #148, .T. ) ;
#157 = FACE_BOUND ( 'NONE', #183, .T. ) ;
#158 = DIRECTION ( 'NONE',  ( -5.135813185032644414E-31, -1.000000000000000000, -1.445602896647343601E-16 ) ) ;
#159 = ADVANCED_FACE ( 'NONE', ( #172 ), #111, .F. ) ;
#160 =( NAMED_UNIT ( * ) PLANE_ANGLE_UNIT ( ) SI_UNIT ( $, .RADIAN. ) );
#161 = CARTESIAN_POINT ( 'NONE',  ( 5.237222008264700033E-14, 1.174999999999998268, 15.00000000000000000 ) ) ;
#162 = VERTEX_POINT ( 'NONE', #161 ) ;
#163 = CARTESIAN_POINT ( 'NONE',  ( 1.316288464743861212E-13, 1.499999999999995337, 37.69999999999999574 ) ) ;
#164 = ADVANCED_FACE ( 'NONE', ( #57, #221 ), #192, .T. ) ;
#165 = EDGE_LOOP ( 'NONE', ( #220 ) ) ;
#166 = EDGE_LOOP ( 'NONE', ( #84 ) ) ;
#167 = CARTESIAN_POINT ( 'NONE',  ( 1.326762908760390423E-13, -4.653657836759941941E-15, 38.00000000000000000 ) ) ;
#168 = ORIENTED_EDGE ( 'NONE', *, *, #27, .F. ) ;
#169 = ORIENTED_EDGE ( 'NONE', *, *, #74, .F. ) ;
#170 = PLANE ( 'NONE',  #108 ) ;
#171 = DIRECTION ( 'NONE',  ( -3.491481338843133355E-15, 1.224646799147353207E-16, -1.000000000000000000 ) ) ;
#172 = FACE_OUTER_BOUND ( 'NONE', #101, .T. ) ;
#173 = AXIS2_PLACEMENT_3D ( 'NONE', #106, #175, #90 ) ;
#174 = CARTESIAN_POINT ( 'NONE',  ( 1.493184454980920141E-15, -1.175000000000000266, 0.4276650252627933191 ) ) ;
#175 = DIRECTION ( 'NONE',  ( -3.491481338843133355E-15, 1.229791517316362731E-16, -1.000000000000000000 ) ) ;
#176 = CALENDAR_DATE ( 2021, 28, 10 ) ;
#177 = AXIS2_PLACEMENT_3D ( 'NONE', #88, #139, #37 ) ;
#178 = APPROVAL_ROLE ( '' ) ;
#179 = CC_DESIGN_PERSON_AND_ORGANIZATION_ASSIGNMENT ( #146, #147, ( #223 ) ) ;
#180 = CALENDAR_DATE ( 2021, 28, 10 ) ;
#181 = AXIS2_PLACEMENT_3D ( 'NONE', #64, #137, #158 ) ;
#182 = COORDINATED_UNIVERSAL_TIME_OFFSET ( 1, 0, .AHEAD. ) ;
#183 = EDGE_LOOP ( 'NONE', ( #11 ) ) ;
#184 = DIRECTION ( 'NONE',  ( -3.491481338843133355E-15, 1.224646799147353207E-16, -1.000000000000000000 ) ) ;
#185 = DIRECTION ( 'NONE',  ( 3.491481338843133355E-15, -1.224646799147353207E-16, 1.000000000000000000 ) ) ;
#186 = PRODUCT_DEFINITION_SHAPE ( 'NONE', 'NONE',  #223 ) ;
#187 = APPROVAL ( #150, 'UNSPECIFIED' ) ;
#188 = CARTESIAN_POINT ( 'NONE',  ( 5.237222008264700033E-14, 1.174999999999998268, 15.00000000000000000 ) ) ;
#189 = CC_DESIGN_PERSON_AND_ORGANIZATION_ASSIGNMENT ( #113, #197, ( #131 ) ) ;
#190 = FACE_BOUND ( 'NONE', #103, .T. ) ;
#191 = AXIS2_PLACEMENT_3D ( 'NONE', #46, #69, #200 ) ;
#192 = CYLINDRICAL_SURFACE ( 'NONE', #173, 1.175000000000000266 ) ;
#193 = LOCAL_TIME ( 11, 23, 22.00000000000000000, #182 ) ;
#194 = DIRECTION ( 'NONE',  ( 0.0000000000000000000, 1.000000000000000000, 0.0000000000000000000 ) ) ;
#195 = ADVANCED_FACE ( 'NONE', ( #190, #54 ), #34, .T. ) ;
#196 = PERSON_AND_ORGANIZATION ( #75, #42 ) ;
#197 = PERSON_AND_ORGANIZATION_ROLE ( 'design_supplier' ) ;
#198 = PERSON_AND_ORGANIZATION_ROLE ( 'creator' ) ;
#199 = DIRECTION ( 'NONE',  ( -3.491481338843133355E-15, 1.229791517316362731E-16, -1.000000000000000000 ) ) ;
#200 = DIRECTION ( 'NONE',  ( -4.917267943116346169E-31, -1.000000000000000000, -1.384087879768728871E-16 ) ) ;
#201 = CONICAL_SURFACE ( 'NONE', #56, 1.199999999999999956, 0.7853981633974453924 ) ;
#202 = FACE_OUTER_BOUND ( 'NONE', #83, .T. ) ;
#203 = EDGE_LOOP ( 'NONE', ( #169 ) ) ;
#204 = ADVANCED_BREP_SHAPE_REPRESENTATION ( '963119', ( #99, #97, #9 ), #105 ) ;
#205 = LOCAL_TIME ( 11, 23, 22.00000000000000000, #115 ) ;
#206 = CARTESIAN_POINT ( 'NONE',  ( 1.326762908760390423E-13, 8.998558695971077224E-33, 38.00000000000000000 ) ) ;
#207 = CARTESIAN_POINT ( 'NONE',  ( 5.237222008264700033E-14, -1.844687275974544269E-15, 15.00000000000000000 ) ) ;
#208 = FACE_OUTER_BOUND ( 'NONE', #154, .T. ) ;
#209 = DIRECTION ( 'NONE',  ( 4.275831445896958607E-31, 1.000000000000000000, 1.224646799147353207E-16 ) ) ;
#210 = CC_DESIGN_APPROVAL ( #79, ( #131 ) ) ;
#211 = DIRECTION ( 'NONE',  ( 1.000000000000000000, 0.0000000000000000000, 0.0000000000000000000 ) ) ;
#212 = DATE_TIME_ROLE ( 'creation_date' ) ;
#213 = UNCERTAINTY_MEASURE_WITH_UNIT (LENGTH_MEASURE( 1.000000000000000082E-05 ), #123, 'distance_accuracy_value', 'NONE');
#214 = APPROVAL_DATE_TIME ( #128, #79 ) ;
#215 = DATE_AND_TIME ( #117, #73 ) ;
#216 = DIRECTION ( 'NONE',  ( 0.0000000000000000000, 1.000000000000000000, 0.0000000000000000000 ) ) ;
#217 = CARTESIAN_POINT ( 'NONE',  ( 5.660709545147535487E-14, -1.993850719798154273E-15, 16.21291651245987708 ) ) ;
#218 = APPROVAL_PERSON_ORGANIZATION ( #151, #79, #125 ) ;
#219 = CARTESIAN_POINT ( 'NONE',  ( 5.237222008264700033E-14, 1.124819836996388553E-32, 15.00000000000000000 ) ) ;
#220 = ORIENTED_EDGE ( 'NONE', *, *, #36, .T. ) ;
#221 = FACE_OUTER_BOUND ( 'NONE', #30, .T. ) ;
#222 =( NAMED_UNIT ( * ) SI_UNIT ( $, .STERADIAN. ) SOLID_ANGLE_UNIT ( ) );
#223 = PRODUCT_DEFINITION ( 'UNKNOWN', '', #131, #145 ) ;
ENDSEC;
END-ISO-10303-21;
