ISO-10303-21;
HEADER;
FILE_DESCRIPTION (( 'STEP AP203' ),
    '1' );
FILE_NAME ('963118.step',
    '2021-10-28T09:23:21',
    ( '' ),
    ( '' ),
    'SwSTEP 2.0',
    'SolidWorks 2019',
    '' );
FILE_SCHEMA (( 'CONFIG_CONTROL_DESIGN' ));
ENDSEC;

DATA;
#1 = DIRECTION ( 'NONE',  ( -3.491481338843133355E-15, 1.224646799147353207E-16, -1.000000000000000000 ) ) ;
#2 = DIRECTION ( 'NONE',  ( 4.275831445896958607E-31, 1.000000000000000000, 1.224646799147353207E-16 ) ) ;
#3 = DIRECTION ( 'NONE',  ( 0.0000000000000000000, 1.000000000000000000, 0.0000000000000000000 ) ) ;
#4 = CARTESIAN_POINT ( 'NONE',  ( 5.237222008264700033E-14, 1.149999999999998135, 15.00000000000000000 ) ) ;
#5 = DIRECTION ( 'NONE',  ( -4.275831445896958607E-31, -1.000000000000000000, -1.224646799147353207E-16 ) ) ;
#6 = COORDINATED_UNIVERSAL_TIME_OFFSET ( 1, 0, .AHEAD. ) ;
#7 = CONICAL_SURFACE ( 'NONE', #223, 1.499999999999995559, 1.221730476396026388 ) ;
#8 = APPLICATION_PROTOCOL_DEFINITION ( 'international standard', 'config_control_design', 1994, #187 ) ;
#9 = APPROVAL_STATUS ( 'not_yet_approved' ) ;
#10 = DIRECTION ( 'NONE',  ( 0.0000000000000000000, 0.0000000000000000000, 1.000000000000000000 ) ) ;
#11 = ORIENTED_EDGE ( 'NONE', *, *, #191, .T. ) ;
#12 = ORIENTED_EDGE ( 'NONE', *, *, #105, .T. ) ;
#13 = EDGE_CURVE ( 'NONE', #189, #189, #66, .T. ) ;
#14 = ORIENTED_EDGE ( 'NONE', *, *, #13, .T. ) ;
#15 = DIRECTION ( 'NONE',  ( 0.0000000000000000000, -1.000000000000000000, 0.0000000000000000000 ) ) ;
#16 = FACE_OUTER_BOUND ( 'NONE', #34, .T. ) ;
#17 = CARTESIAN_POINT ( 'NONE',  ( 5.237222008264700033E-14, 1.124819836996388553E-32, 15.00000000000000000 ) ) ;
#18 = APPROVAL_PERSON_ORGANIZATION ( #55, #138, #203 ) ;
#19 = CARTESIAN_POINT ( 'NONE',  ( 5.693285509523138991E-14, -2.005324830861509010E-15, 16.30621778264909949 ) ) ;
#20 = PRODUCT_RELATED_PRODUCT_CATEGORY ( 'detail', '', ( #110 ) ) ;
#21 = VERTEX_POINT ( 'NONE', #174 ) ;
#22 = PERSON_AND_ORGANIZATION_ROLE ( 'classification_officer' ) ;
#23 = CONICAL_SURFACE ( 'NONE', #196, 1.199999999999999956, 0.7853981633974453924 ) ;
#24 = CC_DESIGN_PERSON_AND_ORGANIZATION_ASSIGNMENT ( #194, #30, ( #186 ) ) ;
#25 = DIRECTION ( 'NONE',  ( -3.491481338843133355E-15, 1.224646799147353207E-16, -1.000000000000000000 ) ) ;
#26 = FACE_OUTER_BOUND ( 'NONE', #97, .T. ) ;
#27 = FACE_OUTER_BOUND ( 'NONE', #148, .T. ) ;
#28 = DIRECTION ( 'NONE',  ( -5.024165072314529112E-31, -1.000000000000000000, -1.414176746720223400E-16 ) ) ;
#29 = CIRCLE ( 'NONE', #158, 1.149999999999999911 ) ;
#30 = PERSON_AND_ORGANIZATION_ROLE ( 'creator' ) ;
#31 =( NAMED_UNIT ( * ) PLANE_ANGLE_UNIT ( ) SI_UNIT ( $, .RADIAN. ) );
#32 = PERSON_AND_ORGANIZATION ( #200, #171 ) ;
#33 = CC_DESIGN_APPROVAL ( #70, ( #186 ) ) ;
#34 = EDGE_LOOP ( 'NONE', ( #146 ) ) ;
#35 = ADVANCED_BREP_SHAPE_REPRESENTATION ( '963118', ( #68, #65, #92 ), #192 ) ;
#36 = CC_DESIGN_PERSON_AND_ORGANIZATION_ASSIGNMENT ( #32, #107, ( #186 ) ) ;
#37 = COORDINATED_UNIVERSAL_TIME_OFFSET ( 1, 0, .AHEAD. ) ;
#38 = CIRCLE ( 'NONE', #96, 1.150000000000000133 ) ;
#39 = ADVANCED_FACE ( 'NONE', ( #132, #41 ), #102, .T. ) ;
#40 = DESIGN_CONTEXT ( 'detailed design', #187, 'design' ) ;
#41 = FACE_OUTER_BOUND ( 'NONE', #113, .T. ) ;
#42 = FACE_OUTER_BOUND ( 'NONE', #207, .T. ) ;
#43 = DIRECTION ( 'NONE',  ( 0.0000000000000000000, 1.000000000000000000, 0.0000000000000000000 ) ) ;
#44 = EDGE_CURVE ( 'NONE', #152, #152, #133, .T. ) ;
#45 = DIRECTION ( 'NONE',  ( 0.0000000000000000000, 1.000000000000000000, 0.0000000000000000000 ) ) ;
#46 = APPLICATION_CONTEXT ( 'configuration controlled 3d designs of mechanical parts and assemblies' ) ;
#47 = FACE_OUTER_BOUND ( 'NONE', #162, .T. ) ;
#48 = AXIS2_PLACEMENT_3D ( 'NONE', #120, #121, #5 ) ;
#49 = CC_DESIGN_PERSON_AND_ORGANIZATION_ASSIGNMENT ( #176, #22, ( #61 ) ) ;
#50 = DATE_AND_TIME ( #54, #57 ) ;
#51 = APPROVAL_DATE_TIME ( #106, #109 ) ;
#52 = PERSON_AND_ORGANIZATION ( #200, #171 ) ;
#53 = AXIS2_PLACEMENT_3D ( 'NONE', #100, #136, #211 ) ;
#54 = CALENDAR_DATE ( 2021, 28, 10 ) ;
#55 = PERSON_AND_ORGANIZATION ( #200, #171 ) ;
#56 = ORIENTED_EDGE ( 'NONE', *, *, #64, .F. ) ;
#57 = LOCAL_TIME ( 11, 23, 21.00000000000000000, #6 ) ;
#58 = DIRECTION ( 'NONE',  ( 0.0000000000000000000, 1.000000000000000000, 0.0000000000000000000 ) ) ;
#59 = CARTESIAN_POINT ( 'NONE',  ( 1.316288464743861212E-13, -4.616918432785521081E-15, 37.69999999999999574 ) ) ;
#60 = AXIS2_PLACEMENT_3D ( 'NONE', #19, #71, #15 ) ;
#61 = SECURITY_CLASSIFICATION ( '', '', #104 ) ;
#62 = CC_DESIGN_APPROVAL ( #109, ( #116 ) ) ;
#63 = PLANE ( 'NONE',  #87 ) ;
#64 = EDGE_CURVE ( 'NONE', #214, #214, #29, .T. ) ;
#65 = MANIFOLD_SOLID_BREP ( 'Corps-Déplacer/Copier1[2]', #179 ) ;
#66 = CIRCLE ( 'NONE', #182, 1.499999999999999778 ) ;
#67 = PLANE ( 'NONE',  #48 ) ;
#68 = MANIFOLD_SOLID_BREP ( 'Corps-Déplacer/Copier1[1]', #163 ) ;
#69 = CARTESIAN_POINT ( 'NONE',  ( 1.906192921252232855E-15, -6.686024735685322183E-17, 0.5459553513993090634 ) ) ;
#70 = APPROVAL ( #9, 'UNSPECIFIED' ) ;
#71 = DIRECTION ( 'NONE',  ( 3.491481338843133355E-15, -1.229791517316362731E-16, 1.000000000000000000 ) ) ;
#72 = CALENDAR_DATE ( 2021, 28, 10 ) ;
#73 = VERTEX_POINT ( 'NONE', #88 ) ;
#74 = ADVANCED_FACE ( 'NONE', ( #42 ), #7, .T. ) ;
#75 = VERTEX_POINT ( 'NONE', #178 ) ;
#76 = AXIS2_PLACEMENT_3D ( 'NONE', #140, #170, #43 ) ;
#77 = CIRCLE ( 'NONE', #193, 1.499999999999998668 ) ;
#78 = ORIENTED_EDGE ( 'NONE', *, *, #105, .F. ) ;
#79 = ORIENTED_EDGE ( 'NONE', *, *, #180, .F. ) ;
#80 = DIRECTION ( 'NONE',  ( -3.491481338843133355E-15, 1.224646799147353207E-16, -1.000000000000000000 ) ) ;
#81 = DIRECTION ( 'NONE',  ( 0.0000000000000000000, 1.000000000000000000, 0.0000000000000000000 ) ) ;
#82 = FACE_OUTER_BOUND ( 'NONE', #201, .T. ) ;
#83 = DIRECTION ( 'NONE',  ( -3.491481338843133355E-15, 1.229791517316362731E-16, -1.000000000000000000 ) ) ;
#84 = CARTESIAN_POINT ( 'NONE',  ( 1.316288464743861212E-13, 1.499999999999995337, 37.69999999999999574 ) ) ;
#85 = DIRECTION ( 'NONE',  ( 3.491481338843133355E-15, -1.224646799147353207E-16, 1.000000000000000000 ) ) ;
#86 = DIRECTION ( 'NONE',  ( 1.000000000000000000, 0.0000000000000000000, 0.0000000000000000000 ) ) ;
#87 = AXIS2_PLACEMENT_3D ( 'NONE', #17, #188, #212 ) ;
#88 = CARTESIAN_POINT ( 'NONE',  ( 5.237222008264700033E-14, 1.149999999999998135, 15.00000000000000000 ) ) ;
#89 = ADVANCED_FACE ( 'NONE', ( #16, #115 ), #23, .T. ) ;
#90 = COORDINATED_UNIVERSAL_TIME_OFFSET ( 1, 0, .AHEAD. ) ;
#91 = CARTESIAN_POINT ( 'NONE',  ( 0.0000000000000000000, 0.0000000000000000000, 0.0000000000000000000 ) ) ;
#92 = AXIS2_PLACEMENT_3D ( 'NONE', #91, #10, #86 ) ;
#93 = CC_DESIGN_DATE_AND_TIME_ASSIGNMENT ( #50, #143, ( #116 ) ) ;
#94 = CALENDAR_DATE ( 2021, 28, 10 ) ;
#95 = EDGE_LOOP ( 'NONE', ( #79 ) ) ;
#96 = AXIS2_PLACEMENT_3D ( 'NONE', #168, #83, #45 ) ;
#97 = EDGE_LOOP ( 'NONE', ( #222 ) ) ;
#98 = CARTESIAN_POINT ( 'NONE',  ( 1.326762908760390423E-13, -4.653657836759941941E-15, 38.00000000000000000 ) ) ;
#99 = FACE_OUTER_BOUND ( 'NONE', #221, .T. ) ;
#100 = CARTESIAN_POINT ( 'NONE',  ( 0.0000000000000000000, 0.0000000000000000000, 0.0000000000000000000 ) ) ;
#101 = CYLINDRICAL_SURFACE ( 'NONE', #220, 1.499999999999998446 ) ;
#102 = CONICAL_SURFACE ( 'NONE', #60, 1.499999999999998668, 0.2617993877991496854 ) ;
#103 = DIRECTION ( 'NONE',  ( 4.275831445896958607E-31, 1.000000000000000000, 1.224646799147353207E-16 ) ) ;
#104 = SECURITY_CLASSIFICATION_LEVEL ( 'unclassified' ) ;
#105 = EDGE_CURVE ( 'NONE', #21, #21, #217, .T. ) ;
#106 = DATE_AND_TIME ( #157, #160 ) ;
#107 = PERSON_AND_ORGANIZATION_ROLE ( 'design_supplier' ) ;
#108 = APPROVAL_ROLE ( '' ) ;
#109 = APPROVAL ( #144, 'UNSPECIFIED' ) ;
#110 = PRODUCT ( '963118', '963118', '', ( #142 ) ) ;
#111 = DATE_AND_TIME ( #219, #118 ) ;
#112 = ADVANCED_FACE ( 'NONE', ( #26 ), #63, .F. ) ;
#113 = EDGE_LOOP ( 'NONE', ( #11 ) ) ;
#114 = LOCAL_TIME ( 11, 23, 21.00000000000000000, #215 ) ;
#115 = FACE_BOUND ( 'NONE', #164, .T. ) ;
#116 = PRODUCT_DEFINITION ( 'UNKNOWN', '', #186, #40 ) ;
#117 = PLANE ( 'NONE',  #129 ) ;
#118 = LOCAL_TIME ( 11, 23, 21.00000000000000000, #90 ) ;
#119 = CARTESIAN_POINT ( 'NONE',  ( 1.461414572960049659E-15, -5.125952297358761510E-17, 0.4185657694061381551 ) ) ;
#120 = CARTESIAN_POINT ( 'NONE',  ( 5.237222008264700033E-14, 1.124819836996388553E-32, 15.00000000000000000 ) ) ;
#121 = DIRECTION ( 'NONE',  ( 3.491481338843133355E-15, -1.224646799147353207E-16, 1.000000000000000000 ) ) ;
#122 = CC_DESIGN_SECURITY_CLASSIFICATION ( #61, ( #186 ) ) ;
#123 = PERSON_AND_ORGANIZATION ( #200, #171 ) ;
#124 =( NAMED_UNIT ( * ) SI_UNIT ( $, .STERADIAN. ) SOLID_ANGLE_UNIT ( ) );
#125 = CARTESIAN_POINT ( 'NONE',  ( 1.461414572960049068E-15, -1.149999999999999911, 0.4185657694061379885 ) ) ;
#126 = DATE_TIME_ROLE ( 'classification_date' ) ;
#127 = APPROVAL_DATE_TIME ( #199, #138 ) ;
#128 = ORIENTED_EDGE ( 'NONE', *, *, #191, .F. ) ;
#129 = AXIS2_PLACEMENT_3D ( 'NONE', #209, #139, #103 ) ;
#130 = ORIENTED_EDGE ( 'NONE', *, *, #44, .T. ) ;
#131 = ADVANCED_FACE ( 'NONE', ( #27, #99 ), #101, .T. ) ;
#132 = FACE_BOUND ( 'NONE', #95, .T. ) ;
#133 = CIRCLE ( 'NONE', #76, 1.150000000000000133 ) ;
#134 = LOCAL_TIME ( 11, 23, 21.00000000000000000, #37 ) ;
#135 = CARTESIAN_POINT ( 'NONE',  ( 0.0000000000000000000, 0.0000000000000000000, 0.0000000000000000000 ) ) ;
#136 = DIRECTION ( 'NONE',  ( -3.491481338843133355E-15, 1.229791517316362731E-16, -1.000000000000000000 ) ) ;
#137 = DIRECTION ( 'NONE',  ( 0.0000000000000000000, 1.000000000000000000, 0.0000000000000000000 ) ) ;
#138 = APPROVAL ( #206, 'UNSPECIFIED' ) ;
#139 = DIRECTION ( 'NONE',  ( -3.491481338843133355E-15, 1.224646799147353207E-16, -1.000000000000000000 ) ) ;
#140 = CARTESIAN_POINT ( 'NONE',  ( 5.237222008264700033E-14, -1.844687275974544269E-15, 15.00000000000000000 ) ) ;
#141 = AXIS2_PLACEMENT_3D ( 'NONE', #149, #1, #137 ) ;
#142 = MECHANICAL_CONTEXT ( 'NONE', #46, 'mechanical' ) ;
#143 = DATE_TIME_ROLE ( 'creation_date' ) ;
#144 = APPROVAL_STATUS ( 'not_yet_approved' ) ;
#145 = ORIENTED_EDGE ( 'NONE', *, *, #44, .F. ) ;
#146 = ORIENTED_EDGE ( 'NONE', *, *, #13, .F. ) ;
#147 = ADVANCED_FACE ( 'NONE', ( #190 ), #117, .F. ) ;
#148 = EDGE_LOOP ( 'NONE', ( #128 ) ) ;
#149 = CARTESIAN_POINT ( 'NONE',  ( 1.326762908760390423E-13, -4.653657836759941941E-15, 38.00000000000000000 ) ) ;
#150 = CARTESIAN_POINT ( 'NONE',  ( 5.693285509523138991E-14, -2.005324830861509010E-15, 16.30621778264909949 ) ) ;
#151 = APPROVAL_PERSON_ORGANIZATION ( #52, #109, #108 ) ;
#152 = VERTEX_POINT ( 'NONE', #4 ) ;
#153 = DIRECTION ( 'NONE',  ( -3.491481338843133355E-15, 1.229791517316362731E-16, -1.000000000000000000 ) ) ;
#154 = CC_DESIGN_PERSON_AND_ORGANIZATION_ASSIGNMENT ( #216, #156, ( #110 ) ) ;
#155 = COORDINATED_UNIVERSAL_TIME_OFFSET ( 1, 0, .AHEAD. ) ;
#156 = PERSON_AND_ORGANIZATION_ROLE ( 'design_owner' ) ;
#157 = CALENDAR_DATE ( 2021, 28, 10 ) ;
#158 = AXIS2_PLACEMENT_3D ( 'NONE', #119, #25, #28 ) ;
#159 = APPROVAL_ROLE ( '' ) ;
#160 = LOCAL_TIME ( 11, 23, 21.00000000000000000, #155 ) ;
#161 = SHAPE_DEFINITION_REPRESENTATION ( #202, #35 ) ;
#162 = EDGE_LOOP ( 'NONE', ( #145 ) ) ;
#163 = CLOSED_SHELL ( 'NONE', ( #131, #89, #147, #39, #112 ) ) ;
#164 = EDGE_LOOP ( 'NONE', ( #12 ) ) ;
#165 = UNCERTAINTY_MEASURE_WITH_UNIT (LENGTH_MEASURE( 1.000000000000000082E-05 ), #173, 'distance_accuracy_value', 'NONE');
#166 = DIRECTION ( 'NONE',  ( -3.491481338843133355E-15, 1.224646799147353207E-16, -1.000000000000000000 ) ) ;
#167 = DIRECTION ( 'NONE',  ( -3.491481338843133355E-15, 1.224646799147353207E-16, -1.000000000000000000 ) ) ;
#168 = CARTESIAN_POINT ( 'NONE',  ( 5.237222008264700033E-14, -1.844687275974544269E-15, 15.00000000000000000 ) ) ;
#169 = ADVANCED_FACE ( 'NONE', ( #172, #82 ), #213, .T. ) ;
#170 = DIRECTION ( 'NONE',  ( -3.491481338843133355E-15, 1.229791517316362731E-16, -1.000000000000000000 ) ) ;
#171 = ORGANIZATION ( 'UNSPECIFIED', 'UNSPECIFIED', '' ) ;
#172 = FACE_OUTER_BOUND ( 'NONE', #205, .T. ) ;
#173 =( LENGTH_UNIT ( ) NAMED_UNIT ( * ) SI_UNIT ( .MILLI., .METRE. ) );
#174 = CARTESIAN_POINT ( 'NONE',  ( 1.326762908760390423E-13, 1.199999999999995293, 38.00000000000000000 ) ) ;
#175 = DATE_AND_TIME ( #72, #114 ) ;
#176 = PERSON_AND_ORGANIZATION ( #200, #171 ) ;
#177 = CC_DESIGN_DATE_AND_TIME_ASSIGNMENT ( #111, #126, ( #61 ) ) ;
#178 = CARTESIAN_POINT ( 'NONE',  ( 5.693285509523138991E-14, 1.499999999999996669, 16.30621778264909949 ) ) ;
#179 = CLOSED_SHELL ( 'NONE', ( #210, #169, #74 ) ) ;
#180 = EDGE_CURVE ( 'NONE', #73, #73, #38, .T. ) ;
#181 = ORIENTED_EDGE ( 'NONE', *, *, #64, .T. ) ;
#182 = AXIS2_PLACEMENT_3D ( 'NONE', #59, #80, #58 ) ;
#183 = CC_DESIGN_PERSON_AND_ORGANIZATION_ASSIGNMENT ( #197, #218, ( #116 ) ) ;
#184 = APPROVAL_PERSON_ORGANIZATION ( #123, #70, #159 ) ;
#185 = DIRECTION ( 'NONE',  ( -5.135813185032644414E-31, -1.000000000000000000, -1.445602896647343601E-16 ) ) ;
#186 = PRODUCT_DEFINITION_FORMATION_WITH_SPECIFIED_SOURCE ( 'ANY', '', #110, .NOT_KNOWN. ) ;
#187 = APPLICATION_CONTEXT ( 'configuration controlled 3d designs of mechanical parts and assemblies' ) ;
#188 = DIRECTION ( 'NONE',  ( 3.491481338843133355E-15, -1.224646799147353207E-16, 1.000000000000000000 ) ) ;
#189 = VERTEX_POINT ( 'NONE', #84 ) ;
#190 = FACE_OUTER_BOUND ( 'NONE', #204, .T. ) ;
#191 = EDGE_CURVE ( 'NONE', #75, #75, #77, .T. ) ;
#192 =( GEOMETRIC_REPRESENTATION_CONTEXT ( 3 ) GLOBAL_UNCERTAINTY_ASSIGNED_CONTEXT ( ( #165 ) ) GLOBAL_UNIT_ASSIGNED_CONTEXT ( ( #173, #31, #124 ) ) REPRESENTATION_CONTEXT ( 'NONE', 'WORKASPACE' ) );
#193 = AXIS2_PLACEMENT_3D ( 'NONE', #150, #153, #3 ) ;
#194 = PERSON_AND_ORGANIZATION ( #200, #171 ) ;
#195 = APPLICATION_PROTOCOL_DEFINITION ( 'international standard', 'config_control_design', 1994, #46 ) ;
#196 = AXIS2_PLACEMENT_3D ( 'NONE', #98, #166, #81 ) ;
#197 = PERSON_AND_ORGANIZATION ( #200, #171 ) ;
#198 = APPROVAL_DATE_TIME ( #175, #70 ) ;
#199 = DATE_AND_TIME ( #94, #134 ) ;
#200 = PERSON ( 'UNSPECIFIED', 'UNSPECIFIED', 'UNSPECIFIED', ('UNSPECIFIED'), ('UNSPECIFIED'), ('UNSPECIFIED') ) ;
#201 = EDGE_LOOP ( 'NONE', ( #56 ) ) ;
#202 = PRODUCT_DEFINITION_SHAPE ( 'NONE', 'NONE',  #116 ) ;
#203 = APPROVAL_ROLE ( '' ) ;
#204 = EDGE_LOOP ( 'NONE', ( #78 ) ) ;
#205 = EDGE_LOOP ( 'NONE', ( #130 ) ) ;
#206 = APPROVAL_STATUS ( 'not_yet_approved' ) ;
#207 = EDGE_LOOP ( 'NONE', ( #181 ) ) ;
#208 = CC_DESIGN_APPROVAL ( #138, ( #61 ) ) ;
#209 = CARTESIAN_POINT ( 'NONE',  ( 1.326762908760390423E-13, 8.998558695971077224E-33, 38.00000000000000000 ) ) ;
#210 = ADVANCED_FACE ( 'NONE', ( #47 ), #67, .T. ) ;
#211 = DIRECTION ( 'NONE',  ( 4.293794133377662246E-31, 1.000000000000000000, 1.229791517316362977E-16 ) ) ;
#212 = DIRECTION ( 'NONE',  ( -4.275831445896958607E-31, -1.000000000000000000, -1.224646799147353207E-16 ) ) ;
#213 = CYLINDRICAL_SURFACE ( 'NONE', #53, 1.149999999999999911 ) ;
#214 = VERTEX_POINT ( 'NONE', #125 ) ;
#215 = COORDINATED_UNIVERSAL_TIME_OFFSET ( 1, 0, .AHEAD. ) ;
#216 = PERSON_AND_ORGANIZATION ( #200, #171 ) ;
#217 = CIRCLE ( 'NONE', #141, 1.199999999999999956 ) ;
#218 = PERSON_AND_ORGANIZATION_ROLE ( 'creator' ) ;
#219 = CALENDAR_DATE ( 2021, 28, 10 ) ;
#220 = AXIS2_PLACEMENT_3D ( 'NONE', #135, #167, #2 ) ;
#221 = EDGE_LOOP ( 'NONE', ( #14 ) ) ;
#222 = ORIENTED_EDGE ( 'NONE', *, *, #180, .T. ) ;
#223 = AXIS2_PLACEMENT_3D ( 'NONE', #69, #85, #185 ) ;
ENDSEC;
END-ISO-10303-21;
