ISO-10303-21;
HEADER;
FILE_DESCRIPTION (( 'STEP AP203' ),
    '1' );
FILE_NAME ('963117.step',
    '2021-10-28T09:23:20',
    ( '' ),
    ( '' ),
    'SwSTEP 2.0',
    'SolidWorks 2019',
    '' );
FILE_SCHEMA (( 'CONFIG_CONTROL_DESIGN' ));
ENDSEC;

DATA;
#1 = EDGE_CURVE ( 'NONE', #188, #188, #33, .T. ) ;
#2 = VERTEX_POINT ( 'NONE', #152 ) ;
#3 =( LENGTH_UNIT ( ) NAMED_UNIT ( * ) SI_UNIT ( .MILLI., .METRE. ) );
#4 = FACE_OUTER_BOUND ( 'NONE', #221, .T. ) ;
#5 = CARTESIAN_POINT ( 'NONE',  ( 5.237222008264700033E-14, -1.844687275974544269E-15, 15.00000000000000000 ) ) ;
#6 = ADVANCED_FACE ( 'NONE', ( #35, #17 ), #110, .T. ) ;
#7 =( NAMED_UNIT ( * ) PLANE_ANGLE_UNIT ( ) SI_UNIT ( $, .RADIAN. ) );
#8 = DIRECTION ( 'NONE',  ( 0.0000000000000000000, 1.000000000000000000, 0.0000000000000000000 ) ) ;
#9 = APPROVAL_DATE_TIME ( #143, #96 ) ;
#10 = ORGANIZATION ( 'UNSPECIFIED', 'UNSPECIFIED', '' ) ;
#11 = PERSON_AND_ORGANIZATION ( #66, #10 ) ;
#12 = EDGE_LOOP ( 'NONE', ( #197 ) ) ;
#13 = AXIS2_PLACEMENT_3D ( 'NONE', #128, #18, #8 ) ;
#14 = CALENDAR_DATE ( 2021, 28, 10 ) ;
#15 = CARTESIAN_POINT ( 'NONE',  ( 5.725861473898741233E-14, -2.016798941924864142E-15, 16.39951905283832190 ) ) ;
#16 = LOCAL_TIME ( 11, 23, 20.00000000000000000, #74 ) ;
#17 = FACE_OUTER_BOUND ( 'NONE', #117, .T. ) ;
#18 = DIRECTION ( 'NONE',  ( -3.491481338843133355E-15, 1.224646799147353207E-16, -1.000000000000000000 ) ) ;
#19 = FACE_OUTER_BOUND ( 'NONE', #55, .T. ) ;
#20 = DATE_AND_TIME ( #100, #151 ) ;
#21 = DIRECTION ( 'NONE',  ( -5.135813185032644414E-31, -1.000000000000000000, -1.445602896647343601E-16 ) ) ;
#22 = AXIS2_PLACEMENT_3D ( 'NONE', #147, #91, #21 ) ;
#23 = VERTEX_POINT ( 'NONE', #137 ) ;
#24 = PRODUCT_RELATED_PRODUCT_CATEGORY ( 'detail', '', ( #103 ) ) ;
#25 = DIRECTION ( 'NONE',  ( -4.275831445896958607E-31, -1.000000000000000000, -1.224646799147353207E-16 ) ) ;
#26 = CIRCLE ( 'NONE', #207, 1.499999999999999778 ) ;
#27 = LOCAL_TIME ( 11, 23, 20.00000000000000000, #106 ) ;
#28 = ADVANCED_FACE ( 'NONE', ( #223, #204 ), #81, .T. ) ;
#29 = CARTESIAN_POINT ( 'NONE',  ( 5.725861473898741233E-14, -2.016798941924864142E-15, 16.39951905283832190 ) ) ;
#30 = DATE_AND_TIME ( #125, #27 ) ;
#31 = EDGE_LOOP ( 'NONE', ( #77 ) ) ;
#32 = EDGE_LOOP ( 'NONE', ( #93 ) ) ;
#33 = CIRCLE ( 'NONE', #38, 1.125000000000000222 ) ;
#34 = CC_DESIGN_APPROVAL ( #182, ( #46 ) ) ;
#35 = FACE_OUTER_BOUND ( 'NONE', #193, .T. ) ;
#36 = CARTESIAN_POINT ( 'NONE',  ( 5.237222008264700033E-14, -1.844687275974544269E-15, 15.00000000000000000 ) ) ;
#37 = DIRECTION ( 'NONE',  ( 0.0000000000000000000, 0.0000000000000000000, 1.000000000000000000 ) ) ;
#38 = AXIS2_PLACEMENT_3D ( 'NONE', #200, #94, #167 ) ;
#39 = DIRECTION ( 'NONE',  ( -3.491481338843133355E-15, 1.229791517316362731E-16, -1.000000000000000000 ) ) ;
#40 = CARTESIAN_POINT ( 'NONE',  ( 5.237222008264700033E-14, 1.124999999999998224, 15.00000000000000000 ) ) ;
#41 = CARTESIAN_POINT ( 'NONE',  ( 5.237222008264700033E-14, 1.124819836996388553E-32, 15.00000000000000000 ) ) ;
#42 = PERSON_AND_ORGANIZATION_ROLE ( 'creator' ) ;
#43 = ORIENTED_EDGE ( 'NONE', *, *, #61, .T. ) ;
#44 = AXIS2_PLACEMENT_3D ( 'NONE', #213, #105, #145 ) ;
#45 = PERSON_AND_ORGANIZATION ( #66, #10 ) ;
#46 = PRODUCT_DEFINITION ( 'UNKNOWN', '', #142, #166 ) ;
#47 = CC_DESIGN_PERSON_AND_ORGANIZATION_ASSIGNMENT ( #11, #194, ( #142 ) ) ;
#48 = LOCAL_TIME ( 11, 23, 20.00000000000000000, #123 ) ;
#49 = CARTESIAN_POINT ( 'NONE',  ( 1.316288464743861212E-13, -4.616918432785521081E-15, 37.69999999999999574 ) ) ;
#50 = LOCAL_TIME ( 11, 23, 20.00000000000000000, #144 ) ;
#51 = CARTESIAN_POINT ( 'NONE',  ( 5.237222008264700033E-14, 1.124999999999998224, 15.00000000000000000 ) ) ;
#52 = PERSON_AND_ORGANIZATION ( #66, #10 ) ;
#53 = CC_DESIGN_DATE_AND_TIME_ASSIGNMENT ( #20, #86, ( #46 ) ) ;
#54 = PERSON_AND_ORGANIZATION ( #66, #10 ) ;
#55 = EDGE_LOOP ( 'NONE', ( #104 ) ) ;
#56 = PLANE ( 'NONE',  #99 ) ;
#57 = APPROVAL_ROLE ( '' ) ;
#58 = CC_DESIGN_PERSON_AND_ORGANIZATION_ASSIGNMENT ( #52, #42, ( #46 ) ) ;
#59 = PERSON_AND_ORGANIZATION_ROLE ( 'classification_officer' ) ;
#60 = APPLICATION_CONTEXT ( 'configuration controlled 3d designs of mechanical parts and assemblies' ) ;
#61 = EDGE_CURVE ( 'NONE', #187, #187, #26, .T. ) ;
#62 = CARTESIAN_POINT ( 'NONE',  ( 1.326762908760390423E-13, 8.998558695971077224E-33, 38.00000000000000000 ) ) ;
#63 = CONICAL_SURFACE ( 'NONE', #95, 1.499999999999998668, 0.2617993877991496854 ) ;
#64 = DIRECTION ( 'NONE',  ( 3.491481338843133355E-15, -1.229791517316362731E-16, 1.000000000000000000 ) ) ;
#65 = DIRECTION ( 'NONE',  ( -4.275831445896958607E-31, -1.000000000000000000, -1.224646799147353207E-16 ) ) ;
#66 = PERSON ( 'UNSPECIFIED', 'UNSPECIFIED', 'UNSPECIFIED', ('UNSPECIFIED'), ('UNSPECIFIED'), ('UNSPECIFIED') ) ;
#67 = FACE_OUTER_BOUND ( 'NONE', #102, .T. ) ;
#68 = VERTEX_POINT ( 'NONE', #40 ) ;
#69 = MANIFOLD_SOLID_BREP ( 'Corps-Déplacer/Copier1[1]', #115 ) ;
#70 = APPROVAL_STATUS ( 'not_yet_approved' ) ;
#71 = FACE_BOUND ( 'NONE', #175, .T. ) ;
#72 =( NAMED_UNIT ( * ) SI_UNIT ( $, .STERADIAN. ) SOLID_ANGLE_UNIT ( ) );
#73 = ADVANCED_FACE ( 'NONE', ( #201 ), #75, .T. ) ;
#74 = COORDINATED_UNIVERSAL_TIME_OFFSET ( 1, 0, .AHEAD. ) ;
#75 = CONICAL_SURFACE ( 'NONE', #22, 1.499999999999995559, 1.221730476396026388 ) ;
#76 = CLOSED_SHELL ( 'NONE', ( #172, #120, #73 ) ) ;
#77 = ORIENTED_EDGE ( 'NONE', *, *, #129, .T. ) ;
#78 = DIRECTION ( 'NONE',  ( 4.275831445896958607E-31, 1.000000000000000000, 1.224646799147353207E-16 ) ) ;
#79 = ORIENTED_EDGE ( 'NONE', *, *, #61, .F. ) ;
#80 = DIRECTION ( 'NONE',  ( 4.275831445896958607E-31, 1.000000000000000000, 1.224646799147353207E-16 ) ) ;
#81 = CONICAL_SURFACE ( 'NONE', #179, 1.199999999999999956, 0.7853981633974453924 ) ;
#82 = PERSON_AND_ORGANIZATION_ROLE ( 'design_owner' ) ;
#83 = CC_DESIGN_PERSON_AND_ORGANIZATION_ASSIGNMENT ( #171, #82, ( #103 ) ) ;
#84 = DIRECTION ( 'NONE',  ( -3.491481338843133355E-15, 1.229791517316362731E-16, -1.000000000000000000 ) ) ;
#85 = APPLICATION_CONTEXT ( 'configuration controlled 3d designs of mechanical parts and assemblies' ) ;
#86 = DATE_TIME_ROLE ( 'creation_date' ) ;
#87 = DIRECTION ( 'NONE',  ( 0.0000000000000000000, 1.000000000000000000, 0.0000000000000000000 ) ) ;
#88 = DATE_TIME_ROLE ( 'classification_date' ) ;
#89 = FACE_OUTER_BOUND ( 'NONE', #31, .T. ) ;
#90 = CC_DESIGN_APPROVAL ( #212, ( #177 ) ) ;
#91 = DIRECTION ( 'NONE',  ( 3.491481338843133355E-15, -1.224646799147353207E-16, 1.000000000000000000 ) ) ;
#92 = APPROVAL_STATUS ( 'not_yet_approved' ) ;
#93 = ORIENTED_EDGE ( 'NONE', *, *, #1, .T. ) ;
#94 = DIRECTION ( 'NONE',  ( -3.491481338843133355E-15, 1.224646799147353207E-16, -1.000000000000000000 ) ) ;
#95 = AXIS2_PLACEMENT_3D ( 'NONE', #15, #64, #113 ) ;
#96 = APPROVAL ( #70, 'UNSPECIFIED' ) ;
#97 = ORIENTED_EDGE ( 'NONE', *, *, #205, .F. ) ;
#98 = PLANE ( 'NONE',  #136 ) ;
#99 = AXIS2_PLACEMENT_3D ( 'NONE', #41, #174, #25 ) ;
#100 = CALENDAR_DATE ( 2021, 28, 10 ) ;
#101 = ORIENTED_EDGE ( 'NONE', *, *, #124, .T. ) ;
#102 = EDGE_LOOP ( 'NONE', ( #157 ) ) ;
#103 = PRODUCT ( '963117', '963117', '', ( #139 ) ) ;
#104 = ORIENTED_EDGE ( 'NONE', *, *, #220, .T. ) ;
#105 = DIRECTION ( 'NONE',  ( -3.491481338843133355E-15, 1.229791517316362731E-16, -1.000000000000000000 ) ) ;
#106 = COORDINATED_UNIVERSAL_TIME_OFFSET ( 1, 0, .AHEAD. ) ;
#107 = ORIENTED_EDGE ( 'NONE', *, *, #129, .F. ) ;
#108 = CC_DESIGN_APPROVAL ( #96, ( #142 ) ) ;
#109 = ORIENTED_EDGE ( 'NONE', *, *, #1, .F. ) ;
#110 = CYLINDRICAL_SURFACE ( 'NONE', #176, 1.499999999999998446 ) ;
#111 = CARTESIAN_POINT ( 'NONE',  ( 0.0000000000000000000, 0.0000000000000000000, 0.0000000000000000000 ) ) ;
#112 = CIRCLE ( 'NONE', #159, 1.499999999999998668 ) ;
#113 = DIRECTION ( 'NONE',  ( 0.0000000000000000000, -1.000000000000000000, 0.0000000000000000000 ) ) ;
#114 = APPLICATION_PROTOCOL_DEFINITION ( 'international standard', 'config_control_design', 1994, #60 ) ;
#115 = CLOSED_SHELL ( 'NONE', ( #6, #28, #203, #161, #178 ) ) ;
#116 = DIRECTION ( 'NONE',  ( 0.0000000000000000000, 1.000000000000000000, 0.0000000000000000000 ) ) ;
#117 = EDGE_LOOP ( 'NONE', ( #43 ) ) ;
#118 = VERTEX_POINT ( 'NONE', #51 ) ;
#119 = CARTESIAN_POINT ( 'NONE',  ( 5.237222008264700033E-14, 1.124819836996388553E-32, 15.00000000000000000 ) ) ;
#120 = ADVANCED_FACE ( 'NONE', ( #19, #4 ), #210, .T. ) ;
#121 = DIRECTION ( 'NONE',  ( -3.491481338843133355E-15, 1.229791517316362731E-16, -1.000000000000000000 ) ) ;
#122 = COORDINATED_UNIVERSAL_TIME_OFFSET ( 1, 0, .AHEAD. ) ;
#123 = COORDINATED_UNIVERSAL_TIME_OFFSET ( 1, 0, .AHEAD. ) ;
#124 = EDGE_CURVE ( 'NONE', #2, #2, #112, .T. ) ;
#125 = CALENDAR_DATE ( 2021, 28, 10 ) ;
#126 = CIRCLE ( 'NONE', #209, 1.125000000000000222 ) ;
#127 = PERSON_AND_ORGANIZATION_ROLE ( 'creator' ) ;
#128 = CARTESIAN_POINT ( 'NONE',  ( 1.326762908760390423E-13, -4.653657836759941941E-15, 38.00000000000000000 ) ) ;
#129 = EDGE_CURVE ( 'NONE', #68, #68, #134, .T. ) ;
#130 = CARTESIAN_POINT ( 'NONE',  ( 0.0000000000000000000, 0.0000000000000000000, 0.0000000000000000000 ) ) ;
#131 = UNCERTAINTY_MEASURE_WITH_UNIT (LENGTH_MEASURE( 1.000000000000000082E-05 ), #3, 'distance_accuracy_value', 'NONE');
#132 = DIRECTION ( 'NONE',  ( 0.0000000000000000000, 1.000000000000000000, 0.0000000000000000000 ) ) ;
#133 = CARTESIAN_POINT ( 'NONE',  ( 1.316288464743861212E-13, 1.499999999999995337, 37.69999999999999574 ) ) ;
#134 = CIRCLE ( 'NONE', #162, 1.125000000000000222 ) ;
#135 = PLANE ( 'NONE',  #219 ) ;
#136 = AXIS2_PLACEMENT_3D ( 'NONE', #62, #165, #78 ) ;
#137 = CARTESIAN_POINT ( 'NONE',  ( 1.326762908760390423E-13, 1.199999999999995293, 38.00000000000000000 ) ) ;
#138 = FACE_OUTER_BOUND ( 'NONE', #195, .T. ) ;
#139 = MECHANICAL_CONTEXT ( 'NONE', #85, 'mechanical' ) ;
#140 = DIRECTION ( 'NONE',  ( 1.000000000000000000, 0.0000000000000000000, 0.0000000000000000000 ) ) ;
#141 = CARTESIAN_POINT ( 'NONE',  ( 1.326762908760390423E-13, -4.653657836759941941E-15, 38.00000000000000000 ) ) ;
#142 = PRODUCT_DEFINITION_FORMATION_WITH_SPECIFIED_SOURCE ( 'ANY', '', #103, .NOT_KNOWN. ) ;
#143 = DATE_AND_TIME ( #217, #16 ) ;
#144 = COORDINATED_UNIVERSAL_TIME_OFFSET ( 1, 0, .AHEAD. ) ;
#145 = DIRECTION ( 'NONE',  ( 4.293794133377662246E-31, 1.000000000000000000, 1.229791517316362731E-16 ) ) ;
#146 = APPROVAL_PERSON_ORGANIZATION ( #180, #182, #168 ) ;
#147 = CARTESIAN_POINT ( 'NONE',  ( 1.906192921252232855E-15, -6.686024735685322183E-17, 0.5459553513993090634 ) ) ;
#148 = FACE_OUTER_BOUND ( 'NONE', #218, .T. ) ;
#149 = CARTESIAN_POINT ( 'NONE',  ( 1.429644690939178586E-15, -1.125000000000000222, 0.4094665135494828800 ) ) ;
#150 = PERSON_AND_ORGANIZATION ( #66, #10 ) ;
#151 = LOCAL_TIME ( 11, 23, 20.00000000000000000, #122 ) ;
#152 = CARTESIAN_POINT ( 'NONE',  ( 5.725861473898741233E-14, 1.499999999999996669, 16.39951905283832190 ) ) ;
#153 = ADVANCED_BREP_SHAPE_REPRESENTATION ( '963117', ( #69, #222, #215 ), #181 ) ;
#154 = APPROVAL_PERSON_ORGANIZATION ( #150, #96, #211 ) ;
#155 = ORIENTED_EDGE ( 'NONE', *, *, #124, .F. ) ;
#156 = SHAPE_DEFINITION_REPRESENTATION ( #158, #153 ) ;
#157 = ORIENTED_EDGE ( 'NONE', *, *, #220, .F. ) ;
#158 = PRODUCT_DEFINITION_SHAPE ( 'NONE', 'NONE',  #46 ) ;
#159 = AXIS2_PLACEMENT_3D ( 'NONE', #29, #39, #132 ) ;
#160 = APPROVAL_PERSON_ORGANIZATION ( #54, #212, #57 ) ;
#161 = ADVANCED_FACE ( 'NONE', ( #71, #138 ), #63, .T. ) ;
#162 = AXIS2_PLACEMENT_3D ( 'NONE', #36, #121, #186 ) ;
#163 = DIRECTION ( 'NONE',  ( -3.491481338843133355E-15, 1.224646799147353207E-16, -1.000000000000000000 ) ) ;
#164 = DIRECTION ( 'NONE',  ( 3.491481338843133355E-15, -1.224646799147353207E-16, 1.000000000000000000 ) ) ;
#165 = DIRECTION ( 'NONE',  ( -3.491481338843133355E-15, 1.224646799147353207E-16, -1.000000000000000000 ) ) ;
#166 = DESIGN_CONTEXT ( 'detailed design', #60, 'design' ) ;
#167 = DIRECTION ( 'NONE',  ( -3.423875456688418516E-31, -1.000000000000000000, -1.445602896647338917E-16 ) ) ;
#168 = APPROVAL_ROLE ( '' ) ;
#169 = DIRECTION ( 'NONE',  ( -3.491481338843133355E-15, 1.224646799147353207E-16, -1.000000000000000000 ) ) ;
#170 = APPROVAL_STATUS ( 'not_yet_approved' ) ;
#171 = PERSON_AND_ORGANIZATION ( #66, #10 ) ;
#172 = ADVANCED_FACE ( 'NONE', ( #67 ), #56, .T. ) ;
#173 = DATE_AND_TIME ( #14, #50 ) ;
#174 = DIRECTION ( 'NONE',  ( 3.491481338843133355E-15, -1.224646799147353207E-16, 1.000000000000000000 ) ) ;
#175 = EDGE_LOOP ( 'NONE', ( #107 ) ) ;
#176 = AXIS2_PLACEMENT_3D ( 'NONE', #111, #163, #80 ) ;
#177 = SECURITY_CLASSIFICATION ( '', '', #196 ) ;
#178 = ADVANCED_FACE ( 'NONE', ( #89 ), #135, .F. ) ;
#179 = AXIS2_PLACEMENT_3D ( 'NONE', #141, #169, #185 ) ;
#180 = PERSON_AND_ORGANIZATION ( #66, #10 ) ;
#181 =( GEOMETRIC_REPRESENTATION_CONTEXT ( 3 ) GLOBAL_UNCERTAINTY_ASSIGNED_CONTEXT ( ( #131 ) ) GLOBAL_UNIT_ASSIGNED_CONTEXT ( ( #3, #7, #72 ) ) REPRESENTATION_CONTEXT ( 'NONE', 'WORKASPACE' ) );
#182 = APPROVAL ( #170, 'UNSPECIFIED' ) ;
#183 = CALENDAR_DATE ( 2021, 28, 10 ) ;
#184 = CC_DESIGN_PERSON_AND_ORGANIZATION_ASSIGNMENT ( #45, #59, ( #177 ) ) ;
#185 = DIRECTION ( 'NONE',  ( 0.0000000000000000000, 1.000000000000000000, 0.0000000000000000000 ) ) ;
#186 = DIRECTION ( 'NONE',  ( 0.0000000000000000000, 1.000000000000000000, 0.0000000000000000000 ) ) ;
#187 = VERTEX_POINT ( 'NONE', #133 ) ;
#188 = VERTEX_POINT ( 'NONE', #149 ) ;
#189 = CC_DESIGN_SECURITY_CLASSIFICATION ( #177, ( #142 ) ) ;
#190 = CIRCLE ( 'NONE', #13, 1.199999999999999956 ) ;
#191 = DIRECTION ( 'NONE',  ( -3.491481338843133355E-15, 1.224646799147353207E-16, -1.000000000000000000 ) ) ;
#192 = APPROVAL_DATE_TIME ( #214, #182 ) ;
#193 = EDGE_LOOP ( 'NONE', ( #155 ) ) ;
#194 = PERSON_AND_ORGANIZATION_ROLE ( 'design_supplier' ) ;
#195 = EDGE_LOOP ( 'NONE', ( #101 ) ) ;
#196 = SECURITY_CLASSIFICATION_LEVEL ( 'unclassified' ) ;
#197 = ORIENTED_EDGE ( 'NONE', *, *, #205, .T. ) ;
#198 = CC_DESIGN_DATE_AND_TIME_ASSIGNMENT ( #173, #88, ( #177 ) ) ;
#199 = APPROVAL_DATE_TIME ( #30, #212 ) ;
#200 = CARTESIAN_POINT ( 'NONE',  ( 1.429644690939178980E-15, -5.014518551764007045E-17, 0.4094665135494830466 ) ) ;
#201 = FACE_OUTER_BOUND ( 'NONE', #32, .T. ) ;
#202 = EDGE_LOOP ( 'NONE', ( #79 ) ) ;
#203 = ADVANCED_FACE ( 'NONE', ( #148 ), #98, .F. ) ;
#204 = FACE_BOUND ( 'NONE', #12, .T. ) ;
#205 = EDGE_CURVE ( 'NONE', #23, #23, #190, .T. ) ;
#206 = APPLICATION_PROTOCOL_DEFINITION ( 'international standard', 'config_control_design', 1994, #85 ) ;
#207 = AXIS2_PLACEMENT_3D ( 'NONE', #49, #191, #116 ) ;
#208 = CC_DESIGN_PERSON_AND_ORGANIZATION_ASSIGNMENT ( #216, #127, ( #142 ) ) ;
#209 = AXIS2_PLACEMENT_3D ( 'NONE', #5, #84, #87 ) ;
#210 = CYLINDRICAL_SURFACE ( 'NONE', #44, 1.125000000000000222 ) ;
#211 = APPROVAL_ROLE ( '' ) ;
#212 = APPROVAL ( #92, 'UNSPECIFIED' ) ;
#213 = CARTESIAN_POINT ( 'NONE',  ( 0.0000000000000000000, 0.0000000000000000000, 0.0000000000000000000 ) ) ;
#214 = DATE_AND_TIME ( #183, #48 ) ;
#215 = AXIS2_PLACEMENT_3D ( 'NONE', #130, #37, #140 ) ;
#216 = PERSON_AND_ORGANIZATION ( #66, #10 ) ;
#217 = CALENDAR_DATE ( 2021, 28, 10 ) ;
#218 = EDGE_LOOP ( 'NONE', ( #97 ) ) ;
#219 = AXIS2_PLACEMENT_3D ( 'NONE', #119, #164, #65 ) ;
#220 = EDGE_CURVE ( 'NONE', #118, #118, #126, .T. ) ;
#221 = EDGE_LOOP ( 'NONE', ( #109 ) ) ;
#222 = MANIFOLD_SOLID_BREP ( 'Corps-Déplacer/Copier1[2]', #76 ) ;
#223 = FACE_OUTER_BOUND ( 'NONE', #202, .T. ) ;
ENDSEC;
END-ISO-10303-21;
