ISO-10303-21;
HEADER;
FILE_DESCRIPTION (( 'STEP AP203' ),
    '1' );
FILE_NAME ('963116.step',
    '2021-10-28T09:23:20',
    ( '' ),
    ( '' ),
    'SwSTEP 2.0',
    'SolidWorks 2019',
    '' );
FILE_SCHEMA (( 'CONFIG_CONTROL_DESIGN' ));
ENDSEC;

DATA;
#1 = ORIENTED_EDGE ( 'NONE', *, *, #46, .F. ) ;
#2 = LOCAL_TIME ( 11, 23, 20.00000000000000000, #203 ) ;
#3 = ADVANCED_FACE ( 'NONE', ( #154 ), #79, .T. ) ;
#4 = CARTESIAN_POINT ( 'NONE',  ( 5.237222008264700033E-14, -1.844687275974544269E-15, 15.00000000000000000 ) ) ;
#5 = VERTEX_POINT ( 'NONE', #75 ) ;
#6 = DIRECTION ( 'NONE',  ( -3.491481338843133355E-15, 1.224646799147353207E-16, -1.000000000000000000 ) ) ;
#7 = DIRECTION ( 'NONE',  ( 4.275831445896958607E-31, 1.000000000000000000, 1.224646799147353207E-16 ) ) ;
#8 = CC_DESIGN_PERSON_AND_ORGANIZATION_ASSIGNMENT ( #35, #16, ( #155 ) ) ;
#9 = CARTESIAN_POINT ( 'NONE',  ( 5.237222008264700033E-14, 1.124819836996388553E-32, 15.00000000000000000 ) ) ;
#10 = APPLICATION_PROTOCOL_DEFINITION ( 'international standard', 'config_control_design', 1994, #122 ) ;
#11 = SECURITY_CLASSIFICATION_LEVEL ( 'unclassified' ) ;
#12 = CIRCLE ( 'NONE', #139, 1.499999999999999778 ) ;
#13 = AXIS2_PLACEMENT_3D ( 'NONE', #9, #144, #213 ) ;
#14 =( NAMED_UNIT ( * ) SI_UNIT ( $, .STERADIAN. ) SOLID_ANGLE_UNIT ( ) );
#15 = CARTESIAN_POINT ( 'NONE',  ( 1.326762908760390423E-13, 1.199999999999995293, 38.00000000000000000 ) ) ;
#16 = PERSON_AND_ORGANIZATION_ROLE ( 'design_owner' ) ;
#17 = ADVANCED_BREP_SHAPE_REPRESENTATION ( '963116', ( #145, #220, #140 ), #176 ) ;
#18 = APPROVAL_DATE_TIME ( #71, #93 ) ;
#19 = EDGE_LOOP ( 'NONE', ( #57 ) ) ;
#20 = CONICAL_SURFACE ( 'NONE', #110, 1.199999999999999956, 0.7853981633974453924 ) ;
#21 = CC_DESIGN_APPROVAL ( #93, ( #168 ) ) ;
#22 = EDGE_LOOP ( 'NONE', ( #126 ) ) ;
#23 = APPROVAL ( #201, 'UNSPECIFIED' ) ;
#24 = DIRECTION ( 'NONE',  ( 4.293794133377662246E-31, 1.000000000000000000, 1.229791517316362484E-16 ) ) ;
#25 = VERTEX_POINT ( 'NONE', #157 ) ;
#26 = AXIS2_PLACEMENT_3D ( 'NONE', #195, #48, #7 ) ;
#27 = DIRECTION ( 'NONE',  ( -3.491481338843133355E-15, 1.229791517316362731E-16, -1.000000000000000000 ) ) ;
#28 = DIRECTION ( 'NONE',  ( -3.491481338843133355E-15, 1.229791517316362731E-16, -1.000000000000000000 ) ) ;
#29 = ADVANCED_FACE ( 'NONE', ( #97 ), #158, .F. ) ;
#30 = DIRECTION ( 'NONE',  ( 0.0000000000000000000, 1.000000000000000000, 0.0000000000000000000 ) ) ;
#31 = AXIS2_PLACEMENT_3D ( 'NONE', #60, #98, #147 ) ;
#32 = PERSON_AND_ORGANIZATION_ROLE ( 'creator' ) ;
#33 = APPROVAL_STATUS ( 'not_yet_approved' ) ;
#34 = CC_DESIGN_PERSON_AND_ORGANIZATION_ASSIGNMENT ( #202, #105, ( #153 ) ) ;
#35 = PERSON_AND_ORGANIZATION ( #92, #165 ) ;
#36 = DATE_TIME_ROLE ( 'creation_date' ) ;
#37 = CARTESIAN_POINT ( 'NONE',  ( 1.906192921252232855E-15, -6.686024735685322183E-17, 0.5459553513993090634 ) ) ;
#38 = UNCERTAINTY_MEASURE_WITH_UNIT (LENGTH_MEASURE( 1.000000000000000082E-05 ), #180, 'distance_accuracy_value', 'NONE');
#39 = CALENDAR_DATE ( 2021, 28, 10 ) ;
#40 = ORIENTED_EDGE ( 'NONE', *, *, #46, .T. ) ;
#41 = EDGE_LOOP ( 'NONE', ( #72 ) ) ;
#42 = ORIENTED_EDGE ( 'NONE', *, *, #185, .F. ) ;
#43 = CIRCLE ( 'NONE', #183, 1.499999999999998668 ) ;
#44 = LOCAL_TIME ( 11, 23, 20.00000000000000000, #186 ) ;
#45 = DIRECTION ( 'NONE',  ( 0.0000000000000000000, 1.000000000000000000, 0.0000000000000000000 ) ) ;
#46 = EDGE_CURVE ( 'NONE', #142, #142, #12, .T. ) ;
#47 = DIRECTION ( 'NONE',  ( 0.0000000000000000000, 1.000000000000000000, 0.0000000000000000000 ) ) ;
#48 = DIRECTION ( 'NONE',  ( -3.491481338843133355E-15, 1.224646799147353207E-16, -1.000000000000000000 ) ) ;
#49 = CIRCLE ( 'NONE', #164, 1.100000000000000311 ) ;
#50 = CARTESIAN_POINT ( 'NONE',  ( 1.316288464743861212E-13, -4.616918432785521081E-15, 37.69999999999999574 ) ) ;
#51 = CARTESIAN_POINT ( 'NONE',  ( 1.326762908760390423E-13, -4.653657836759941941E-15, 38.00000000000000000 ) ) ;
#52 = CARTESIAN_POINT ( 'NONE',  ( 0.0000000000000000000, 0.0000000000000000000, 0.0000000000000000000 ) ) ;
#53 = MECHANICAL_CONTEXT ( 'NONE', #94, 'mechanical' ) ;
#54 = DATE_AND_TIME ( #104, #87 ) ;
#55 = CIRCLE ( 'NONE', #184, 1.100000000000000311 ) ;
#56 = EDGE_LOOP ( 'NONE', ( #128 ) ) ;
#57 = ORIENTED_EDGE ( 'NONE', *, *, #121, .T. ) ;
#58 = EDGE_CURVE ( 'NONE', #25, #25, #49, .T. ) ;
#59 = AXIS2_PLACEMENT_3D ( 'NONE', #51, #6, #118 ) ;
#60 = CARTESIAN_POINT ( 'NONE',  ( 5.758437438274343474E-14, -2.028273052988218485E-15, 16.49282032302754075 ) ) ;
#61 = FACE_BOUND ( 'NONE', #22, .T. ) ;
#62 = DIRECTION ( 'NONE',  ( -4.275831445896958607E-31, -1.000000000000000000, -1.224646799147353207E-16 ) ) ;
#63 = CONICAL_SURFACE ( 'NONE', #31, 1.499999999999998668, 0.2617993877991501295 ) ;
#64 = DIRECTION ( 'NONE',  ( 4.275831445896958607E-31, 1.000000000000000000, 1.224646799147353207E-16 ) ) ;
#65 = COORDINATED_UNIVERSAL_TIME_OFFSET ( 1, 0, .AHEAD. ) ;
#66 = AXIS2_PLACEMENT_3D ( 'NONE', #174, #208, #62 ) ;
#67 = APPROVAL_PERSON_ORGANIZATION ( #204, #93, #190 ) ;
#68 = APPROVAL ( #33, 'UNSPECIFIED' ) ;
#69 = AXIS2_PLACEMENT_3D ( 'NONE', #78, #112, #64 ) ;
#70 = CC_DESIGN_APPROVAL ( #68, ( #173 ) ) ;
#71 = DATE_AND_TIME ( #39, #44 ) ;
#72 = ORIENTED_EDGE ( 'NONE', *, *, #58, .F. ) ;
#73 = EDGE_LOOP ( 'NONE', ( #189 ) ) ;
#74 = PLANE ( 'NONE',  #66 ) ;
#75 = CARTESIAN_POINT ( 'NONE',  ( 5.758437438274343474E-14, 1.499999999999996669, 16.49282032302754075 ) ) ;
#76 = FACE_BOUND ( 'NONE', #191, .T. ) ;
#77 = PRODUCT_DEFINITION_SHAPE ( 'NONE', 'NONE',  #173 ) ;
#78 = CARTESIAN_POINT ( 'NONE',  ( 0.0000000000000000000, 0.0000000000000000000, 0.0000000000000000000 ) ) ;
#79 = CONICAL_SURFACE ( 'NONE', #205, 1.499999999999995559, 1.221730476396026388 ) ;
#80 = CLOSED_SHELL ( 'NONE', ( #187, #113, #3 ) ) ;
#81 = CC_DESIGN_SECURITY_CLASSIFICATION ( #168, ( #153 ) ) ;
#82 = CARTESIAN_POINT ( 'NONE',  ( 5.758437438274343474E-14, -2.028273052988218485E-15, 16.49282032302754075 ) ) ;
#83 = DATE_AND_TIME ( #221, #84 ) ;
#84 = LOCAL_TIME ( 11, 23, 20.00000000000000000, #149 ) ;
#85 = APPLICATION_PROTOCOL_DEFINITION ( 'international standard', 'config_control_design', 1994, #94 ) ;
#86 = AXIS2_PLACEMENT_3D ( 'NONE', #4, #214, #132 ) ;
#87 = LOCAL_TIME ( 11, 23, 20.00000000000000000, #65 ) ;
#88 = ADVANCED_FACE ( 'NONE', ( #194, #160 ), #177, .T. ) ;
#89 = DESIGN_CONTEXT ( 'detailed design', #122, 'design' ) ;
#90 = DIRECTION ( 'NONE',  ( -5.135813185032644414E-31, -1.000000000000000000, -1.445602896647343601E-16 ) ) ;
#91 = EDGE_LOOP ( 'NONE', ( #42 ) ) ;
#92 = PERSON ( 'UNSPECIFIED', 'UNSPECIFIED', 'UNSPECIFIED', ('UNSPECIFIED'), ('UNSPECIFIED'), ('UNSPECIFIED') ) ;
#93 = APPROVAL ( #188, 'UNSPECIFIED' ) ;
#94 = APPLICATION_CONTEXT ( 'configuration controlled 3d designs of mechanical parts and assemblies' ) ;
#95 = DIRECTION ( 'NONE',  ( 0.0000000000000000000, 1.000000000000000000, 0.0000000000000000000 ) ) ;
#96 = FACE_OUTER_BOUND ( 'NONE', #107, .T. ) ;
#97 = FACE_OUTER_BOUND ( 'NONE', #91, .T. ) ;
#98 = DIRECTION ( 'NONE',  ( 3.491481338843133355E-15, -1.229791517316362731E-16, 1.000000000000000000 ) ) ;
#99 = CARTESIAN_POINT ( 'NONE',  ( 0.0000000000000000000, 0.0000000000000000000, 0.0000000000000000000 ) ) ;
#100 = APPROVAL_PERSON_ORGANIZATION ( #148, #23, #119 ) ;
#101 = PERSON_AND_ORGANIZATION ( #92, #165 ) ;
#102 = APPROVAL_DATE_TIME ( #181, #23 ) ;
#103 = VERTEX_POINT ( 'NONE', #198 ) ;
#104 = CALENDAR_DATE ( 2021, 28, 10 ) ;
#105 = PERSON_AND_ORGANIZATION_ROLE ( 'creator' ) ;
#106 = DIRECTION ( 'NONE',  ( 3.491481338843133355E-15, -1.224646799147353207E-16, 1.000000000000000000 ) ) ;
#107 = EDGE_LOOP ( 'NONE', ( #141 ) ) ;
#108 = CC_DESIGN_PERSON_AND_ORGANIZATION_ASSIGNMENT ( #218, #135, ( #168 ) ) ;
#109 = DATE_TIME_ROLE ( 'classification_date' ) ;
#110 = AXIS2_PLACEMENT_3D ( 'NONE', #129, #175, #95 ) ;
#111 = EDGE_LOOP ( 'NONE', ( #171 ) ) ;
#112 = DIRECTION ( 'NONE',  ( -3.491481338843133355E-15, 1.224646799147353207E-16, -1.000000000000000000 ) ) ;
#113 = ADVANCED_FACE ( 'NONE', ( #96, #131 ), #212, .T. ) ;
#114 = FACE_OUTER_BOUND ( 'NONE', #124, .T. ) ;
#115 = DIRECTION ( 'NONE',  ( -3.501690807976791266E-31, -1.000000000000000000, -9.856383386231855129E-17 ) ) ;
#116 = CIRCLE ( 'NONE', #59, 1.199999999999999956 ) ;
#117 = FACE_OUTER_BOUND ( 'NONE', #19, .T. ) ;
#118 = DIRECTION ( 'NONE',  ( 0.0000000000000000000, 1.000000000000000000, 0.0000000000000000000 ) ) ;
#119 = APPROVAL_ROLE ( '' ) ;
#120 = CARTESIAN_POINT ( 'NONE',  ( 5.237222008264700033E-14, 1.099999999999998312, 15.00000000000000000 ) ) ;
#121 = EDGE_CURVE ( 'NONE', #5, #5, #43, .T. ) ;
#122 = APPLICATION_CONTEXT ( 'configuration controlled 3d designs of mechanical parts and assemblies' ) ;
#123 = CIRCLE ( 'NONE', #86, 1.100000000000000311 ) ;
#124 = EDGE_LOOP ( 'NONE', ( #1 ) ) ;
#125 = CALENDAR_DATE ( 2021, 28, 10 ) ;
#126 = ORIENTED_EDGE ( 'NONE', *, *, #159, .F. ) ;
#127 = CLOSED_SHELL ( 'NONE', ( #88, #150, #29, #211, #207 ) ) ;
#128 = ORIENTED_EDGE ( 'NONE', *, *, #216, .F. ) ;
#129 = CARTESIAN_POINT ( 'NONE',  ( 1.326762908760390423E-13, -4.653657836759941941E-15, 38.00000000000000000 ) ) ;
#130 = CARTESIAN_POINT ( 'NONE',  ( 1.316288464743861212E-13, 1.499999999999995337, 37.69999999999999574 ) ) ;
#131 = FACE_OUTER_BOUND ( 'NONE', #41, .T. ) ;
#132 = DIRECTION ( 'NONE',  ( 0.0000000000000000000, 1.000000000000000000, 0.0000000000000000000 ) ) ;
#133 = APPROVAL_PERSON_ORGANIZATION ( #215, #68, #219 ) ;
#134 = COORDINATED_UNIVERSAL_TIME_OFFSET ( 1, 0, .AHEAD. ) ;
#135 = PERSON_AND_ORGANIZATION_ROLE ( 'classification_officer' ) ;
#136 = VERTEX_POINT ( 'NONE', #120 ) ;
#137 = DATE_AND_TIME ( #125, #2 ) ;
#138 = EDGE_LOOP ( 'NONE', ( #40 ) ) ;
#139 = AXIS2_PLACEMENT_3D ( 'NONE', #50, #178, #47 ) ;
#140 = AXIS2_PLACEMENT_3D ( 'NONE', #52, #167, #166 ) ;
#141 = ORIENTED_EDGE ( 'NONE', *, *, #216, .T. ) ;
#142 = VERTEX_POINT ( 'NONE', #130 ) ;
#143 = DIRECTION ( 'NONE',  ( -3.491481338843133355E-15, 1.224646799147353207E-16, -1.000000000000000000 ) ) ;
#144 = DIRECTION ( 'NONE',  ( 3.491481338843133355E-15, -1.224646799147353207E-16, 1.000000000000000000 ) ) ;
#145 = MANIFOLD_SOLID_BREP ( 'Corps-Déplacer/Copier1[1]', #127 ) ;
#146 = CC_DESIGN_PERSON_AND_ORGANIZATION_ASSIGNMENT ( #163, #32, ( #173 ) ) ;
#147 = DIRECTION ( 'NONE',  ( 0.0000000000000000000, -1.000000000000000000, 0.0000000000000000000 ) ) ;
#148 = PERSON_AND_ORGANIZATION ( #92, #165 ) ;
#149 = COORDINATED_UNIVERSAL_TIME_OFFSET ( 1, 0, .AHEAD. ) ;
#150 = ADVANCED_FACE ( 'NONE', ( #114, #76 ), #20, .T. ) ;
#151 = APPROVAL_DATE_TIME ( #54, #68 ) ;
#152 = PRODUCT_RELATED_PRODUCT_CATEGORY ( 'detail', '', ( #155 ) ) ;
#153 = PRODUCT_DEFINITION_FORMATION_WITH_SPECIFIED_SOURCE ( 'ANY', '', #155, .NOT_KNOWN. ) ;
#154 = FACE_OUTER_BOUND ( 'NONE', #170, .T. ) ;
#155 = PRODUCT ( '963116', '963116', '', ( #53 ) ) ;
#156 = FACE_OUTER_BOUND ( 'NONE', #56, .T. ) ;
#157 = CARTESIAN_POINT ( 'NONE',  ( 1.397874808918308104E-15, -1.100000000000000311, 0.4003672576928277715 ) ) ;
#158 = PLANE ( 'NONE',  #26 ) ;
#159 = EDGE_CURVE ( 'NONE', #103, #103, #123, .T. ) ;
#160 = FACE_OUTER_BOUND ( 'NONE', #138, .T. ) ;
#161 = AXIS2_PLACEMENT_3D ( 'NONE', #99, #27, #24 ) ;
#162 = PLANE ( 'NONE',  #13 ) ;
#163 = PERSON_AND_ORGANIZATION ( #92, #165 ) ;
#164 = AXIS2_PLACEMENT_3D ( 'NONE', #210, #143, #115 ) ;
#165 = ORGANIZATION ( 'UNSPECIFIED', 'UNSPECIFIED', '' ) ;
#166 = DIRECTION ( 'NONE',  ( 1.000000000000000000, 0.0000000000000000000, 0.0000000000000000000 ) ) ;
#167 = DIRECTION ( 'NONE',  ( 0.0000000000000000000, 0.0000000000000000000, 1.000000000000000000 ) ) ;
#168 = SECURITY_CLASSIFICATION ( '', '', #11 ) ;
#169 = CC_DESIGN_DATE_AND_TIME_ASSIGNMENT ( #137, #109, ( #168 ) ) ;
#170 = EDGE_LOOP ( 'NONE', ( #206 ) ) ;
#171 = ORIENTED_EDGE ( 'NONE', *, *, #121, .F. ) ;
#172 = ORIENTED_EDGE ( 'NONE', *, *, #185, .T. ) ;
#173 = PRODUCT_DEFINITION ( 'UNKNOWN', '', #153, #89 ) ;
#174 = CARTESIAN_POINT ( 'NONE',  ( 5.237222008264700033E-14, 1.124819836996388553E-32, 15.00000000000000000 ) ) ;
#175 = DIRECTION ( 'NONE',  ( -3.491481338843133355E-15, 1.224646799147353207E-16, -1.000000000000000000 ) ) ;
#176 =( GEOMETRIC_REPRESENTATION_CONTEXT ( 3 ) GLOBAL_UNCERTAINTY_ASSIGNED_CONTEXT ( ( #38 ) ) GLOBAL_UNIT_ASSIGNED_CONTEXT ( ( #180, #217, #14 ) ) REPRESENTATION_CONTEXT ( 'NONE', 'WORKASPACE' ) );
#177 = CYLINDRICAL_SURFACE ( 'NONE', #69, 1.499999999999998446 ) ;
#178 = DIRECTION ( 'NONE',  ( -3.491481338843133355E-15, 1.224646799147353207E-16, -1.000000000000000000 ) ) ;
#179 = VERTEX_POINT ( 'NONE', #15 ) ;
#180 =( LENGTH_UNIT ( ) NAMED_UNIT ( * ) SI_UNIT ( .MILLI., .METRE. ) );
#181 = DATE_AND_TIME ( #182, #223 ) ;
#182 = CALENDAR_DATE ( 2021, 28, 10 ) ;
#183 = AXIS2_PLACEMENT_3D ( 'NONE', #82, #28, #30 ) ;
#184 = AXIS2_PLACEMENT_3D ( 'NONE', #193, #197, #45 ) ;
#185 = EDGE_CURVE ( 'NONE', #179, #179, #116, .T. ) ;
#186 = COORDINATED_UNIVERSAL_TIME_OFFSET ( 1, 0, .AHEAD. ) ;
#187 = ADVANCED_FACE ( 'NONE', ( #156 ), #162, .T. ) ;
#188 = APPROVAL_STATUS ( 'not_yet_approved' ) ;
#189 = ORIENTED_EDGE ( 'NONE', *, *, #159, .T. ) ;
#190 = APPROVAL_ROLE ( '' ) ;
#191 = EDGE_LOOP ( 'NONE', ( #172 ) ) ;
#192 = CC_DESIGN_PERSON_AND_ORGANIZATION_ASSIGNMENT ( #101, #200, ( #153 ) ) ;
#193 = CARTESIAN_POINT ( 'NONE',  ( 5.237222008264700033E-14, -1.844687275974544269E-15, 15.00000000000000000 ) ) ;
#194 = FACE_OUTER_BOUND ( 'NONE', #111, .T. ) ;
#195 = CARTESIAN_POINT ( 'NONE',  ( 1.326762908760390423E-13, 8.998558695971077224E-33, 38.00000000000000000 ) ) ;
#196 = FACE_OUTER_BOUND ( 'NONE', #73, .T. ) ;
#197 = DIRECTION ( 'NONE',  ( -3.491481338843133355E-15, 1.229791517316362731E-16, -1.000000000000000000 ) ) ;
#198 = CARTESIAN_POINT ( 'NONE',  ( 5.237222008264700033E-14, 1.099999999999998312, 15.00000000000000000 ) ) ;
#199 = CC_DESIGN_DATE_AND_TIME_ASSIGNMENT ( #83, #36, ( #173 ) ) ;
#200 = PERSON_AND_ORGANIZATION_ROLE ( 'design_supplier' ) ;
#201 = APPROVAL_STATUS ( 'not_yet_approved' ) ;
#202 = PERSON_AND_ORGANIZATION ( #92, #165 ) ;
#203 = COORDINATED_UNIVERSAL_TIME_OFFSET ( 1, 0, .AHEAD. ) ;
#204 = PERSON_AND_ORGANIZATION ( #92, #165 ) ;
#205 = AXIS2_PLACEMENT_3D ( 'NONE', #37, #106, #90 ) ;
#206 = ORIENTED_EDGE ( 'NONE', *, *, #58, .T. ) ;
#207 = ADVANCED_FACE ( 'NONE', ( #196 ), #74, .F. ) ;
#208 = DIRECTION ( 'NONE',  ( 3.491481338843133355E-15, -1.224646799147353207E-16, 1.000000000000000000 ) ) ;
#209 = CC_DESIGN_APPROVAL ( #23, ( #153 ) ) ;
#210 = CARTESIAN_POINT ( 'NONE',  ( 1.397874808918308498E-15, -4.903084806169251962E-17, 0.4003672576928278826 ) ) ;
#211 = ADVANCED_FACE ( 'NONE', ( #61, #117 ), #63, .T. ) ;
#212 = CYLINDRICAL_SURFACE ( 'NONE', #161, 1.100000000000000311 ) ;
#213 = DIRECTION ( 'NONE',  ( -4.275831445896958607E-31, -1.000000000000000000, -1.224646799147353207E-16 ) ) ;
#214 = DIRECTION ( 'NONE',  ( -3.491481338843133355E-15, 1.229791517316362731E-16, -1.000000000000000000 ) ) ;
#215 = PERSON_AND_ORGANIZATION ( #92, #165 ) ;
#216 = EDGE_CURVE ( 'NONE', #136, #136, #55, .T. ) ;
#217 =( NAMED_UNIT ( * ) PLANE_ANGLE_UNIT ( ) SI_UNIT ( $, .RADIAN. ) );
#218 = PERSON_AND_ORGANIZATION ( #92, #165 ) ;
#219 = APPROVAL_ROLE ( '' ) ;
#220 = MANIFOLD_SOLID_BREP ( 'Corps-Déplacer/Copier1[2]', #80 ) ;
#221 = CALENDAR_DATE ( 2021, 28, 10 ) ;
#222 = SHAPE_DEFINITION_REPRESENTATION ( #77, #17 ) ;
#223 = LOCAL_TIME ( 11, 23, 20.00000000000000000, #134 ) ;
ENDSEC;
END-ISO-10303-21;
