ISO-10303-21;
HEADER;
FILE_DESCRIPTION (( 'STEP AP203' ),
    '1' );
FILE_NAME ('963115.step',
    '2021-10-28T09:23:19',
    ( '' ),
    ( '' ),
    'SwSTEP 2.0',
    'SolidWorks 2019',
    '' );
FILE_SCHEMA (( 'CONFIG_CONTROL_DESIGN' ));
ENDSEC;

DATA;
#1 = DATE_AND_TIME ( #87, #201 ) ;
#2 = PERSON_AND_ORGANIZATION ( #164, #13 ) ;
#3 = COORDINATED_UNIVERSAL_TIME_OFFSET ( 1, 0, .AHEAD. ) ;
#4 = LOCAL_TIME ( 11, 23, 19.00000000000000000, #115 ) ;
#5 = CALENDAR_DATE ( 2021, 28, 10 ) ;
#6 =( LENGTH_UNIT ( ) NAMED_UNIT ( * ) SI_UNIT ( .MILLI., .METRE. ) );
#7 = AXIS2_PLACEMENT_3D ( 'NONE', #133, #176, #177 ) ;
#8 = APPROVAL_PERSON_ORGANIZATION ( #37, #220, #42 ) ;
#9 = ORIENTED_EDGE ( 'NONE', *, *, #40, .T. ) ;
#10 = ORIENTED_EDGE ( 'NONE', *, *, #60, .F. ) ;
#11 = CLOSED_SHELL ( 'NONE', ( #190, #152, #71 ) ) ;
#12 = AXIS2_PLACEMENT_3D ( 'NONE', #151, #55, #104 ) ;
#13 = ORGANIZATION ( 'UNSPECIFIED', 'UNSPECIFIED', '' ) ;
#14 = FACE_OUTER_BOUND ( 'NONE', #102, .T. ) ;
#15 = FACE_BOUND ( 'NONE', #95, .T. ) ;
#16 = AXIS2_PLACEMENT_3D ( 'NONE', #120, #83, #138 ) ;
#17 = LOCAL_TIME ( 11, 23, 19.00000000000000000, #139 ) ;
#18 = DIRECTION ( 'NONE',  ( -3.491481338843133355E-15, 1.224646799147353207E-16, -1.000000000000000000 ) ) ;
#19 = FACE_OUTER_BOUND ( 'NONE', #64, .T. ) ;
#20 = DIRECTION ( 'NONE',  ( 0.0000000000000000000, 1.000000000000000000, 0.0000000000000000000 ) ) ;
#21 = PERSON_AND_ORGANIZATION_ROLE ( 'classification_officer' ) ;
#22 = CARTESIAN_POINT ( 'NONE',  ( 0.0000000000000000000, 0.0000000000000000000, 0.0000000000000000000 ) ) ;
#23 = ADVANCED_FACE ( 'NONE', ( #114, #28 ), #207, .T. ) ;
#24 = AXIS2_PLACEMENT_3D ( 'NONE', #193, #69, #33 ) ;
#25 = PERSON_AND_ORGANIZATION_ROLE ( 'design_supplier' ) ;
#26 = CC_DESIGN_PERSON_AND_ORGANIZATION_ASSIGNMENT ( #72, #57, ( #81 ) ) ;
#27 = APPROVAL_ROLE ( '' ) ;
#28 = FACE_OUTER_BOUND ( 'NONE', #168, .T. ) ;
#29 = ORIENTED_EDGE ( 'NONE', *, *, #148, .T. ) ;
#30 = CC_DESIGN_APPROVAL ( #126, ( #81 ) ) ;
#31 = DIRECTION ( 'NONE',  ( -4.275831445896958607E-31, -1.000000000000000000, -1.224646799147353207E-16 ) ) ;
#32 = CARTESIAN_POINT ( 'NONE',  ( 1.316288464743861212E-13, -4.616918432785521081E-15, 37.69999999999999574 ) ) ;
#33 = DIRECTION ( 'NONE',  ( -3.583125477929741356E-31, -1.000000000000000000, -1.008560160451632098E-16 ) ) ;
#34 = VERTEX_POINT ( 'NONE', #105 ) ;
#35 = DESIGN_CONTEXT ( 'detailed design', #76, 'design' ) ;
#36 = DIRECTION ( 'NONE',  ( -3.491481338843133355E-15, 1.224646799147353207E-16, -1.000000000000000000 ) ) ;
#37 = PERSON_AND_ORGANIZATION ( #164, #13 ) ;
#38 = PERSON_AND_ORGANIZATION ( #164, #13 ) ;
#39 = SECURITY_CLASSIFICATION_LEVEL ( 'unclassified' ) ;
#40 = EDGE_CURVE ( 'NONE', #67, #67, #63, .T. ) ;
#41 = DIRECTION ( 'NONE',  ( 1.000000000000000000, 0.0000000000000000000, 0.0000000000000000000 ) ) ;
#42 = APPROVAL_ROLE ( '' ) ;
#43 = EDGE_CURVE ( 'NONE', #134, #134, #109, .T. ) ;
#44 = ORIENTED_EDGE ( 'NONE', *, *, #206, .F. ) ;
#45 = AXIS2_PLACEMENT_3D ( 'NONE', #65, #209, #155 ) ;
#46 = EDGE_LOOP ( 'NONE', ( #166 ) ) ;
#47 = SECURITY_CLASSIFICATION ( '', '', #39 ) ;
#48 = CC_DESIGN_PERSON_AND_ORGANIZATION_ASSIGNMENT ( #38, #25, ( #179 ) ) ;
#49 = EDGE_LOOP ( 'NONE', ( #129 ) ) ;
#50 = ORIENTED_EDGE ( 'NONE', *, *, #40, .F. ) ;
#51 = FACE_OUTER_BOUND ( 'NONE', #62, .T. ) ;
#52 = CARTESIAN_POINT ( 'NONE',  ( 5.237222008264700033E-14, -1.844687275974544269E-15, 15.00000000000000000 ) ) ;
#53 = FACE_OUTER_BOUND ( 'NONE', #188, .T. ) ;
#54 = AXIS2_PLACEMENT_3D ( 'NONE', #106, #80, #31 ) ;
#55 = DIRECTION ( 'NONE',  ( -3.491481338843133355E-15, 1.229791517316362731E-16, -1.000000000000000000 ) ) ;
#56 = VERTEX_POINT ( 'NONE', #141 ) ;
#57 = PERSON_AND_ORGANIZATION_ROLE ( 'creator' ) ;
#58 = CALENDAR_DATE ( 2021, 28, 10 ) ;
#59 = VERTEX_POINT ( 'NONE', #70 ) ;
#60 = EDGE_CURVE ( 'NONE', #34, #34, #135, .T. ) ;
#61 = PERSON_AND_ORGANIZATION ( #164, #13 ) ;
#62 = EDGE_LOOP ( 'NONE', ( #10 ) ) ;
#63 = CIRCLE ( 'NONE', #121, 1.075000000000000178 ) ;
#64 = EDGE_LOOP ( 'NONE', ( #44 ) ) ;
#65 = CARTESIAN_POINT ( 'NONE',  ( 5.237222008264700033E-14, 1.124819836996388553E-32, 15.00000000000000000 ) ) ;
#66 = FACE_OUTER_BOUND ( 'NONE', #216, .T. ) ;
#67 = VERTEX_POINT ( 'NONE', #154 ) ;
#68 = DIRECTION ( 'NONE',  ( -3.491481338843133355E-15, 1.224646799147353207E-16, -1.000000000000000000 ) ) ;
#69 = DIRECTION ( 'NONE',  ( -3.491481338843133355E-15, 1.224646799147353207E-16, -1.000000000000000000 ) ) ;
#70 = CARTESIAN_POINT ( 'NONE',  ( 1.316288464743861212E-13, 1.499999999999995337, 37.69999999999999574 ) ) ;
#71 = ADVANCED_FACE ( 'NONE', ( #66 ), #167, .T. ) ;
#72 = PERSON_AND_ORGANIZATION ( #164, #13 ) ;
#73 =( NAMED_UNIT ( * ) PLANE_ANGLE_UNIT ( ) SI_UNIT ( $, .RADIAN. ) );
#74 = APPROVAL_DATE_TIME ( #144, #126 ) ;
#75 = CLOSED_SHELL ( 'NONE', ( #165, #124, #203, #23, #175 ) ) ;
#76 = APPLICATION_CONTEXT ( 'configuration controlled 3d designs of mechanical parts and assemblies' ) ;
#77 = AXIS2_PLACEMENT_3D ( 'NONE', #221, #68, #212 ) ;
#78 = ORIENTED_EDGE ( 'NONE', *, *, #98, .T. ) ;
#79 = APPROVAL_STATUS ( 'not_yet_approved' ) ;
#80 = DIRECTION ( 'NONE',  ( 3.491481338843133355E-15, -1.224646799147353207E-16, 1.000000000000000000 ) ) ;
#81 = PRODUCT_DEFINITION ( 'UNKNOWN', '', #179, #35 ) ;
#82 = FACE_OUTER_BOUND ( 'NONE', #46, .T. ) ;
#83 = DIRECTION ( 'NONE',  ( -3.491481338843133355E-15, 1.229791517316362731E-16, -1.000000000000000000 ) ) ;
#84 = FACE_OUTER_BOUND ( 'NONE', #49, .T. ) ;
#85 = DIRECTION ( 'NONE',  ( -3.491481338843133355E-15, 1.229791517316362731E-16, -1.000000000000000000 ) ) ;
#86 = AXIS2_PLACEMENT_3D ( 'NONE', #132, #36, #182 ) ;
#87 = CALENDAR_DATE ( 2021, 28, 10 ) ;
#88 = PRODUCT_RELATED_PRODUCT_CATEGORY ( 'detail', '', ( #108 ) ) ;
#89 = DIRECTION ( 'NONE',  ( 0.0000000000000000000, 0.0000000000000000000, 1.000000000000000000 ) ) ;
#90 = DATE_AND_TIME ( #93, #140 ) ;
#91 = PERSON_AND_ORGANIZATION ( #164, #13 ) ;
#92 = CC_DESIGN_DATE_AND_TIME_ASSIGNMENT ( #1, #99, ( #47 ) ) ;
#93 = CALENDAR_DATE ( 2021, 28, 10 ) ;
#94 = SHAPE_DEFINITION_REPRESENTATION ( #181, #142 ) ;
#95 = EDGE_LOOP ( 'NONE', ( #97 ) ) ;
#96 = CIRCLE ( 'NONE', #12, 1.499999999999998668 ) ;
#97 = ORIENTED_EDGE ( 'NONE', *, *, #43, .T. ) ;
#98 = EDGE_CURVE ( 'NONE', #180, #180, #101, .T. ) ;
#99 = DATE_TIME_ROLE ( 'classification_date' ) ;
#100 = CARTESIAN_POINT ( 'NONE',  ( 5.791013402649946978E-14, -2.039747164051572827E-15, 16.58612159321676316 ) ) ;
#101 = CIRCLE ( 'NONE', #24, 1.074999999999999956 ) ;
#102 = EDGE_LOOP ( 'NONE', ( #116 ) ) ;
#103 = DIRECTION ( 'NONE',  ( 0.0000000000000000000, 1.000000000000000000, 0.0000000000000000000 ) ) ;
#104 = DIRECTION ( 'NONE',  ( 0.0000000000000000000, 1.000000000000000000, 0.0000000000000000000 ) ) ;
#105 = CARTESIAN_POINT ( 'NONE',  ( 5.237222008264700033E-14, 1.074999999999998179, 15.00000000000000000 ) ) ;
#106 = CARTESIAN_POINT ( 'NONE',  ( 5.237222008264700033E-14, 1.124819836996388553E-32, 15.00000000000000000 ) ) ;
#107 = APPROVAL_STATUS ( 'not_yet_approved' ) ;
#108 = PRODUCT ( '963115', '963115', '', ( #185 ) ) ;
#109 = CIRCLE ( 'NONE', #86, 1.199999999999999956 ) ;
#110 = AXIS2_PLACEMENT_3D ( 'NONE', #32, #123, #103 ) ;
#111 = COORDINATED_UNIVERSAL_TIME_OFFSET ( 1, 0, .AHEAD. ) ;
#112 = APPROVAL_PERSON_ORGANIZATION ( #2, #126, #200 ) ;
#113 = PERSON_AND_ORGANIZATION_ROLE ( 'creator' ) ;
#114 = FACE_BOUND ( 'NONE', #189, .T. ) ;
#115 = COORDINATED_UNIVERSAL_TIME_OFFSET ( 1, 0, .AHEAD. ) ;
#116 = ORIENTED_EDGE ( 'NONE', *, *, #60, .T. ) ;
#117 = DIRECTION ( 'NONE',  ( -3.491481338843133355E-15, 1.224646799147353207E-16, -1.000000000000000000 ) ) ;
#118 = FACE_OUTER_BOUND ( 'NONE', #174, .T. ) ;
#119 = DIRECTION ( 'NONE',  ( 0.0000000000000000000, 1.000000000000000000, 0.0000000000000000000 ) ) ;
#120 = CARTESIAN_POINT ( 'NONE',  ( 0.0000000000000000000, 0.0000000000000000000, 0.0000000000000000000 ) ) ;
#121 = AXIS2_PLACEMENT_3D ( 'NONE', #219, #157, #20 ) ;
#122 = CC_DESIGN_APPROVAL ( #159, ( #47 ) ) ;
#123 = DIRECTION ( 'NONE',  ( -3.491481338843133355E-15, 1.224646799147353207E-16, -1.000000000000000000 ) ) ;
#124 = ADVANCED_FACE ( 'NONE', ( #19, #15 ), #187, .T. ) ;
#125 = APPROVAL_DATE_TIME ( #90, #220 ) ;
#126 = APPROVAL ( #107, 'UNSPECIFIED' ) ;
#127 = PERSON_AND_ORGANIZATION_ROLE ( 'design_owner' ) ;
#128 = EDGE_LOOP ( 'NONE', ( #130 ) ) ;
#129 = ORIENTED_EDGE ( 'NONE', *, *, #206, .T. ) ;
#130 = ORIENTED_EDGE ( 'NONE', *, *, #98, .F. ) ;
#131 = CC_DESIGN_PERSON_AND_ORGANIZATION_ASSIGNMENT ( #199, #113, ( #179 ) ) ;
#132 = CARTESIAN_POINT ( 'NONE',  ( 1.326762908760390423E-13, -4.653657836759941941E-15, 38.00000000000000000 ) ) ;
#133 = CARTESIAN_POINT ( 'NONE',  ( 1.906192921252232855E-15, -6.686024735685322183E-17, 0.5459553513993090634 ) ) ;
#134 = VERTEX_POINT ( 'NONE', #194 ) ;
#135 = CIRCLE ( 'NONE', #178, 1.075000000000000178 ) ;
#136 = CARTESIAN_POINT ( 'NONE',  ( 1.326762908760390423E-13, -4.653657836759941941E-15, 38.00000000000000000 ) ) ;
#137 = APPLICATION_CONTEXT ( 'configuration controlled 3d designs of mechanical parts and assemblies' ) ;
#138 = DIRECTION ( 'NONE',  ( 4.293794133377663121E-31, 1.000000000000000000, 1.229791517316362731E-16 ) ) ;
#139 = COORDINATED_UNIVERSAL_TIME_OFFSET ( 1, 0, .AHEAD. ) ;
#140 = LOCAL_TIME ( 11, 23, 19.00000000000000000, #158 ) ;
#141 = CARTESIAN_POINT ( 'NONE',  ( 5.791013402649946978E-14, 1.499999999999996669, 16.58612159321676316 ) ) ;
#142 = ADVANCED_BREP_SHAPE_REPRESENTATION ( '963115', ( #146, #150, #208 ), #218 ) ;
#143 = DATE_TIME_ROLE ( 'creation_date' ) ;
#144 = DATE_AND_TIME ( #5, #161 ) ;
#145 = APPROVAL_PERSON_ORGANIZATION ( #61, #159, #27 ) ;
#146 = MANIFOLD_SOLID_BREP ( 'Corps-Déplacer/Copier1[1]', #75 ) ;
#147 = AXIS2_PLACEMENT_3D ( 'NONE', #213, #117, #191 ) ;
#148 = EDGE_CURVE ( 'NONE', #56, #56, #96, .T. ) ;
#149 = APPROVAL_DATE_TIME ( #169, #159 ) ;
#150 = MANIFOLD_SOLID_BREP ( 'Corps-Déplacer/Copier1[2]', #11 ) ;
#151 = CARTESIAN_POINT ( 'NONE',  ( 5.791013402649946978E-14, -2.039747164051572827E-15, 16.58612159321676316 ) ) ;
#152 = ADVANCED_FACE ( 'NONE', ( #14, #195 ), #211, .T. ) ;
#153 = AXIS2_PLACEMENT_3D ( 'NONE', #100, #170, #205 ) ;
#154 = CARTESIAN_POINT ( 'NONE',  ( 5.237222008264700033E-14, 1.074999999999998179, 15.00000000000000000 ) ) ;
#155 = DIRECTION ( 'NONE',  ( -4.275831445896958607E-31, -1.000000000000000000, -1.224646799147353207E-16 ) ) ;
#156 = CYLINDRICAL_SURFACE ( 'NONE', #147, 1.499999999999998446 ) ;
#157 = DIRECTION ( 'NONE',  ( -3.491481338843133355E-15, 1.229791517316362731E-16, -1.000000000000000000 ) ) ;
#158 = COORDINATED_UNIVERSAL_TIME_OFFSET ( 1, 0, .AHEAD. ) ;
#159 = APPROVAL ( #79, 'UNSPECIFIED' ) ;
#160 = CARTESIAN_POINT ( 'NONE',  ( 1.366104926897437228E-15, -1.074999999999999956, 0.3912680018361725520 ) ) ;
#161 = LOCAL_TIME ( 11, 23, 19.00000000000000000, #3 ) ;
#162 = APPLICATION_PROTOCOL_DEFINITION ( 'international standard', 'config_control_design', 1994, #76 ) ;
#163 = PERSON_AND_ORGANIZATION ( #164, #13 ) ;
#164 = PERSON ( 'UNSPECIFIED', 'UNSPECIFIED', 'UNSPECIFIED', ('UNSPECIFIED'), ('UNSPECIFIED'), ('UNSPECIFIED') ) ;
#165 = ADVANCED_FACE ( 'NONE', ( #82, #84 ), #156, .T. ) ;
#166 = ORIENTED_EDGE ( 'NONE', *, *, #148, .F. ) ;
#167 = CONICAL_SURFACE ( 'NONE', #7, 1.499999999999995559, 1.221730476396026388 ) ;
#168 = EDGE_LOOP ( 'NONE', ( #29 ) ) ;
#169 = DATE_AND_TIME ( #172, #4 ) ;
#170 = DIRECTION ( 'NONE',  ( 3.491481338843133355E-15, -1.229791517316362731E-16, 1.000000000000000000 ) ) ;
#171 = CC_DESIGN_PERSON_AND_ORGANIZATION_ASSIGNMENT ( #91, #127, ( #108 ) ) ;
#172 = CALENDAR_DATE ( 2021, 28, 10 ) ;
#173 = CIRCLE ( 'NONE', #110, 1.499999999999999778 ) ;
#174 = EDGE_LOOP ( 'NONE', ( #204 ) ) ;
#175 = ADVANCED_FACE ( 'NONE', ( #53 ), #222, .F. ) ;
#176 = DIRECTION ( 'NONE',  ( 3.491481338843133355E-15, -1.224646799147353207E-16, 1.000000000000000000 ) ) ;
#177 = DIRECTION ( 'NONE',  ( -5.135813185032644414E-31, -1.000000000000000000, -1.445602896647343601E-16 ) ) ;
#178 = AXIS2_PLACEMENT_3D ( 'NONE', #52, #85, #119 ) ;
#179 = PRODUCT_DEFINITION_FORMATION_WITH_SPECIFIED_SOURCE ( 'ANY', '', #108, .NOT_KNOWN. ) ;
#180 = VERTEX_POINT ( 'NONE', #160 ) ;
#181 = PRODUCT_DEFINITION_SHAPE ( 'NONE', 'NONE',  #81 ) ;
#182 = DIRECTION ( 'NONE',  ( 0.0000000000000000000, 1.000000000000000000, 0.0000000000000000000 ) ) ;
#183 = DATE_AND_TIME ( #58, #17 ) ;
#184 = CC_DESIGN_DATE_AND_TIME_ASSIGNMENT ( #183, #143, ( #81 ) ) ;
#185 = MECHANICAL_CONTEXT ( 'NONE', #137, 'mechanical' ) ;
#186 =( NAMED_UNIT ( * ) SI_UNIT ( $, .STERADIAN. ) SOLID_ANGLE_UNIT ( ) );
#187 = CONICAL_SURFACE ( 'NONE', #197, 1.199999999999999956, 0.7853981633974453924 ) ;
#188 = EDGE_LOOP ( 'NONE', ( #9 ) ) ;
#189 = EDGE_LOOP ( 'NONE', ( #50 ) ) ;
#190 = ADVANCED_FACE ( 'NONE', ( #51 ), #217, .T. ) ;
#191 = DIRECTION ( 'NONE',  ( 4.275831445896958607E-31, 1.000000000000000000, 1.224646799147353207E-16 ) ) ;
#192 = PLANE ( 'NONE',  #77 ) ;
#193 = CARTESIAN_POINT ( 'NONE',  ( 1.366104926897437622E-15, -4.791651060574495031E-17, 0.3912680018361726630 ) ) ;
#194 = CARTESIAN_POINT ( 'NONE',  ( 1.326762908760390423E-13, 1.199999999999995293, 38.00000000000000000 ) ) ;
#195 = FACE_OUTER_BOUND ( 'NONE', #128, .T. ) ;
#196 = UNCERTAINTY_MEASURE_WITH_UNIT (LENGTH_MEASURE( 1.000000000000000082E-05 ), #6, 'distance_accuracy_value', 'NONE');
#197 = AXIS2_PLACEMENT_3D ( 'NONE', #136, #18, #210 ) ;
#198 = CC_DESIGN_SECURITY_CLASSIFICATION ( #47, ( #179 ) ) ;
#199 = PERSON_AND_ORGANIZATION ( #164, #13 ) ;
#200 = APPROVAL_ROLE ( '' ) ;
#201 = LOCAL_TIME ( 11, 23, 19.00000000000000000, #111 ) ;
#202 = CC_DESIGN_PERSON_AND_ORGANIZATION_ASSIGNMENT ( #163, #21, ( #47 ) ) ;
#203 = ADVANCED_FACE ( 'NONE', ( #118 ), #192, .F. ) ;
#204 = ORIENTED_EDGE ( 'NONE', *, *, #43, .F. ) ;
#205 = DIRECTION ( 'NONE',  ( 0.0000000000000000000, -1.000000000000000000, 0.0000000000000000000 ) ) ;
#206 = EDGE_CURVE ( 'NONE', #59, #59, #173, .T. ) ;
#207 = CONICAL_SURFACE ( 'NONE', #153, 1.499999999999998668, 0.2617993877991500740 ) ;
#208 = AXIS2_PLACEMENT_3D ( 'NONE', #22, #89, #41 ) ;
#209 = DIRECTION ( 'NONE',  ( 3.491481338843133355E-15, -1.224646799147353207E-16, 1.000000000000000000 ) ) ;
#210 = DIRECTION ( 'NONE',  ( 0.0000000000000000000, 1.000000000000000000, 0.0000000000000000000 ) ) ;
#211 = CYLINDRICAL_SURFACE ( 'NONE', #16, 1.074999999999999956 ) ;
#212 = DIRECTION ( 'NONE',  ( 4.275831445896958607E-31, 1.000000000000000000, 1.224646799147353207E-16 ) ) ;
#213 = CARTESIAN_POINT ( 'NONE',  ( 0.0000000000000000000, 0.0000000000000000000, 0.0000000000000000000 ) ) ;
#214 = APPLICATION_PROTOCOL_DEFINITION ( 'international standard', 'config_control_design', 1994, #137 ) ;
#215 = APPROVAL_STATUS ( 'not_yet_approved' ) ;
#216 = EDGE_LOOP ( 'NONE', ( #78 ) ) ;
#217 = PLANE ( 'NONE',  #45 ) ;
#218 =( GEOMETRIC_REPRESENTATION_CONTEXT ( 3 ) GLOBAL_UNCERTAINTY_ASSIGNED_CONTEXT ( ( #196 ) ) GLOBAL_UNIT_ASSIGNED_CONTEXT ( ( #6, #73, #186 ) ) REPRESENTATION_CONTEXT ( 'NONE', 'WORKASPACE' ) );
#219 = CARTESIAN_POINT ( 'NONE',  ( 5.237222008264700033E-14, -1.844687275974544269E-15, 15.00000000000000000 ) ) ;
#220 = APPROVAL ( #215, 'UNSPECIFIED' ) ;
#221 = CARTESIAN_POINT ( 'NONE',  ( 1.326762908760390423E-13, 8.998558695971077224E-33, 38.00000000000000000 ) ) ;
#222 = PLANE ( 'NONE',  #54 ) ;
#223 = CC_DESIGN_APPROVAL ( #220, ( #179 ) ) ;
ENDSEC;
END-ISO-10303-21;
