ISO-10303-21;
HEADER;
FILE_DESCRIPTION (( 'STEP AP203' ),
    '1' );
FILE_NAME ('963111.step',
    '2021-10-28T09:23:18',
    ( '' ),
    ( '' ),
    'SwSTEP 2.0',
    'SolidWorks 2019',
    '' );
FILE_SCHEMA (( 'CONFIG_CONTROL_DESIGN' ));
ENDSEC;

DATA;
#1 = CARTESIAN_POINT ( 'NONE',  ( 0.0000000000000000000, 0.0000000000000000000, 0.0000000000000000000 ) ) ;
#2 = CARTESIAN_POINT ( 'NONE',  ( 5.823589367025549220E-14, 1.499999999999996669, 16.67942286340598557 ) ) ;
#3 = APPROVAL_DATE_TIME ( #126, #47 ) ;
#4 = SECURITY_CLASSIFICATION_LEVEL ( 'unclassified' ) ;
#5 = CIRCLE ( 'NONE', #108, 1.050000000000000044 ) ;
#6 = ADVANCED_FACE ( 'NONE', ( #178, #25 ), #217, .T. ) ;
#7 = PERSON_AND_ORGANIZATION ( #206, #32 ) ;
#8 = ORIENTED_EDGE ( 'NONE', *, *, #34, .F. ) ;
#9 = ADVANCED_FACE ( 'NONE', ( #24 ), #120, .F. ) ;
#10 = AXIS2_PLACEMENT_3D ( 'NONE', #198, #13, #114 ) ;
#11 = LOCAL_TIME ( 11, 23, 18.00000000000000000, #54 ) ;
#12 = AXIS2_PLACEMENT_3D ( 'NONE', #64, #48, #102 ) ;
#13 = DIRECTION ( 'NONE',  ( 3.491481338843133355E-15, -1.224646799147353207E-16, 1.000000000000000000 ) ) ;
#14 = DIRECTION ( 'NONE',  ( -3.668437989309020339E-31, -1.000000000000000000, -1.032573497605242224E-16 ) ) ;
#15 = APPLICATION_PROTOCOL_DEFINITION ( 'international standard', 'config_control_design', 1994, #45 ) ;
#16 = VERTEX_POINT ( 'NONE', #106 ) ;
#17 = COORDINATED_UNIVERSAL_TIME_OFFSET ( 1, 0, .AHEAD. ) ;
#18 = AXIS2_PLACEMENT_3D ( 'NONE', #100, #119, #182 ) ;
#19 = APPROVAL_PERSON_ORGANIZATION ( #204, #47, #36 ) ;
#20 = DIRECTION ( 'NONE',  ( 0.0000000000000000000, 0.0000000000000000000, 1.000000000000000000 ) ) ;
#21 = ORIENTED_EDGE ( 'NONE', *, *, #23, .F. ) ;
#22 = EDGE_LOOP ( 'NONE', ( #158 ) ) ;
#23 = EDGE_CURVE ( 'NONE', #29, #29, #184, .T. ) ;
#24 = FACE_OUTER_BOUND ( 'NONE', #143, .T. ) ;
#25 = FACE_OUTER_BOUND ( 'NONE', #96, .T. ) ;
#26 = EDGE_CURVE ( 'NONE', #165, #165, #5, .T. ) ;
#27 = DIRECTION ( 'NONE',  ( -3.491481338843133355E-15, 1.224646799147353207E-16, -1.000000000000000000 ) ) ;
#28 = CARTESIAN_POINT ( 'NONE',  ( 5.237222008264700033E-14, -1.844687275974544269E-15, 15.00000000000000000 ) ) ;
#29 = VERTEX_POINT ( 'NONE', #153 ) ;
#30 = VERTEX_POINT ( 'NONE', #202 ) ;
#31 = DIRECTION ( 'NONE',  ( 0.0000000000000000000, -1.000000000000000000, 0.0000000000000000000 ) ) ;
#32 = ORGANIZATION ( 'UNSPECIFIED', 'UNSPECIFIED', '' ) ;
#33 = APPROVAL_STATUS ( 'not_yet_approved' ) ;
#34 = EDGE_CURVE ( 'NONE', #30, #30, #137, .T. ) ;
#35 = COORDINATED_UNIVERSAL_TIME_OFFSET ( 1, 0, .AHEAD. ) ;
#36 = APPROVAL_ROLE ( '' ) ;
#37 = PERSON_AND_ORGANIZATION ( #206, #32 ) ;
#38 = CC_DESIGN_DATE_AND_TIME_ASSIGNMENT ( #188, #70, ( #208 ) ) ;
#39 = APPROVAL_ROLE ( '' ) ;
#40 = ORIENTED_EDGE ( 'NONE', *, *, #26, .T. ) ;
#41 = AXIS2_PLACEMENT_3D ( 'NONE', #162, #115, #85 ) ;
#42 = EDGE_LOOP ( 'NONE', ( #214 ) ) ;
#43 = APPROVAL_DATE_TIME ( #59, #152 ) ;
#44 = EDGE_CURVE ( 'NONE', #51, #51, #163, .T. ) ;
#45 = APPLICATION_CONTEXT ( 'configuration controlled 3d designs of mechanical parts and assemblies' ) ;
#46 = ORIENTED_EDGE ( 'NONE', *, *, #23, .T. ) ;
#47 = APPROVAL ( #90, 'UNSPECIFIED' ) ;
#48 = DIRECTION ( 'NONE',  ( -3.491481338843133355E-15, 1.229791517316362731E-16, -1.000000000000000000 ) ) ;
#49 = FACE_OUTER_BOUND ( 'NONE', #140, .T. ) ;
#50 = DIRECTION ( 'NONE',  ( -3.491481338843133355E-15, 1.229791517316362731E-16, -1.000000000000000000 ) ) ;
#51 = VERTEX_POINT ( 'NONE', #186 ) ;
#52 = DIRECTION ( 'NONE',  ( -3.491481338843133355E-15, 1.224646799147353207E-16, -1.000000000000000000 ) ) ;
#53 = PERSON_AND_ORGANIZATION_ROLE ( 'creator' ) ;
#54 = COORDINATED_UNIVERSAL_TIME_OFFSET ( 1, 0, .AHEAD. ) ;
#55 = CALENDAR_DATE ( 2021, 28, 10 ) ;
#56 = LOCAL_TIME ( 11, 23, 18.00000000000000000, #175 ) ;
#57 = CC_DESIGN_PERSON_AND_ORGANIZATION_ASSIGNMENT ( #211, #89, ( #191 ) ) ;
#58 = EDGE_LOOP ( 'NONE', ( #40 ) ) ;
#59 = DATE_AND_TIME ( #128, #56 ) ;
#60 = CARTESIAN_POINT ( 'NONE',  ( 0.0000000000000000000, 0.0000000000000000000, 0.0000000000000000000 ) ) ;
#61 = EDGE_LOOP ( 'NONE', ( #77 ) ) ;
#62 = PLANE ( 'NONE',  #101 ) ;
#63 =( GEOMETRIC_REPRESENTATION_CONTEXT ( 3 ) GLOBAL_UNCERTAINTY_ASSIGNED_CONTEXT ( ( #160 ) ) GLOBAL_UNIT_ASSIGNED_CONTEXT ( ( #174, #93, #209 ) ) REPRESENTATION_CONTEXT ( 'NONE', 'WORKASPACE' ) );
#64 = CARTESIAN_POINT ( 'NONE',  ( 5.237222008264700033E-14, -1.844687275974544269E-15, 15.00000000000000000 ) ) ;
#65 = DIRECTION ( 'NONE',  ( 3.491481338843133355E-15, -1.224646799147353207E-16, 1.000000000000000000 ) ) ;
#66 = ADVANCED_FACE ( 'NONE', ( #218, #134 ), #91, .T. ) ;
#67 = FACE_OUTER_BOUND ( 'NONE', #176, .T. ) ;
#68 = DIRECTION ( 'NONE',  ( 0.0000000000000000000, 1.000000000000000000, 0.0000000000000000000 ) ) ;
#69 = ADVANCED_FACE ( 'NONE', ( #219 ), #62, .F. ) ;
#70 = DATE_TIME_ROLE ( 'creation_date' ) ;
#71 = CC_DESIGN_APPROVAL ( #152, ( #94 ) ) ;
#72 = PERSON_AND_ORGANIZATION ( #206, #32 ) ;
#73 = APPROVAL_ROLE ( '' ) ;
#74 = DIRECTION ( 'NONE',  ( 1.000000000000000000, 0.0000000000000000000, 0.0000000000000000000 ) ) ;
#75 = ADVANCED_BREP_SHAPE_REPRESENTATION ( '963111', ( #141, #222, #88 ), #63 ) ;
#76 = SHAPE_DEFINITION_REPRESENTATION ( #156, #75 ) ;
#77 = ORIENTED_EDGE ( 'NONE', *, *, #81, .T. ) ;
#78 = AXIS2_PLACEMENT_3D ( 'NONE', #187, #27, #68 ) ;
#79 = CC_DESIGN_APPROVAL ( #47, ( #208 ) ) ;
#80 = ORIENTED_EDGE ( 'NONE', *, *, #34, .T. ) ;
#81 = EDGE_CURVE ( 'NONE', #207, #207, #144, .T. ) ;
#82 = PLANE ( 'NONE',  #98 ) ;
#83 = LOCAL_TIME ( 11, 23, 18.00000000000000000, #35 ) ;
#84 = DIRECTION ( 'NONE',  ( 3.491481338843133355E-15, -1.224646799147353207E-16, 1.000000000000000000 ) ) ;
#85 = DIRECTION ( 'NONE',  ( 0.0000000000000000000, 1.000000000000000000, 0.0000000000000000000 ) ) ;
#86 = DIRECTION ( 'NONE',  ( 3.491481338843133355E-15, -1.229791517316362731E-16, 1.000000000000000000 ) ) ;
#87 = DIRECTION ( 'NONE',  ( -4.275831445896958607E-31, -1.000000000000000000, -1.224646799147353207E-16 ) ) ;
#88 = AXIS2_PLACEMENT_3D ( 'NONE', #92, #20, #74 ) ;
#89 = PERSON_AND_ORGANIZATION_ROLE ( 'design_owner' ) ;
#90 = APPROVAL_STATUS ( 'not_yet_approved' ) ;
#91 = CONICAL_SURFACE ( 'NONE', #216, 1.499999999999998668, 0.2617993877991499074 ) ;
#92 = CARTESIAN_POINT ( 'NONE',  ( 0.0000000000000000000, 0.0000000000000000000, 0.0000000000000000000 ) ) ;
#93 =( NAMED_UNIT ( * ) PLANE_ANGLE_UNIT ( ) SI_UNIT ( $, .RADIAN. ) );
#94 = SECURITY_CLASSIFICATION ( '', '', #4 ) ;
#95 = CLOSED_SHELL ( 'NONE', ( #107, #147, #113 ) ) ;
#96 = EDGE_LOOP ( 'NONE', ( #80 ) ) ;
#97 = ORIENTED_EDGE ( 'NONE', *, *, #44, .T. ) ;
#98 = AXIS2_PLACEMENT_3D ( 'NONE', #131, #84, #87 ) ;
#99 = APPROVAL_PERSON_ORGANIZATION ( #171, #193, #73 ) ;
#100 = CARTESIAN_POINT ( 'NONE',  ( 1.326762908760390423E-13, -4.653657836759941941E-15, 38.00000000000000000 ) ) ;
#101 = AXIS2_PLACEMENT_3D ( 'NONE', #164, #52, #149 ) ;
#102 = DIRECTION ( 'NONE',  ( 0.0000000000000000000, 1.000000000000000000, 0.0000000000000000000 ) ) ;
#103 = CARTESIAN_POINT ( 'NONE',  ( 5.237222008264700033E-14, 1.124819836996388553E-32, 15.00000000000000000 ) ) ;
#104 = CC_DESIGN_SECURITY_CLASSIFICATION ( #94, ( #215 ) ) ;
#105 = AXIS2_PLACEMENT_3D ( 'NONE', #1, #50, #185 ) ;
#106 = CARTESIAN_POINT ( 'NONE',  ( 1.326762908760390423E-13, 1.199999999999995293, 38.00000000000000000 ) ) ;
#107 = ADVANCED_FACE ( 'NONE', ( #67 ), #82, .T. ) ;
#108 = AXIS2_PLACEMENT_3D ( 'NONE', #203, #146, #14 ) ;
#109 = CC_DESIGN_PERSON_AND_ORGANIZATION_ASSIGNMENT ( #123, #154, ( #215 ) ) ;
#110 = ORIENTED_EDGE ( 'NONE', *, *, #44, .F. ) ;
#111 = EDGE_LOOP ( 'NONE', ( #180 ) ) ;
#112 = DIRECTION ( 'NONE',  ( -3.491481338843133355E-15, 1.224646799147353207E-16, -1.000000000000000000 ) ) ;
#113 = ADVANCED_FACE ( 'NONE', ( #199 ), #201, .T. ) ;
#114 = DIRECTION ( 'NONE',  ( -5.135813185032644414E-31, -1.000000000000000000, -1.445602896647343601E-16 ) ) ;
#115 = DIRECTION ( 'NONE',  ( -3.491481338843133355E-15, 1.224646799147353207E-16, -1.000000000000000000 ) ) ;
#116 = APPLICATION_CONTEXT ( 'configuration controlled 3d designs of mechanical parts and assemblies' ) ;
#117 = CARTESIAN_POINT ( 'NONE',  ( 5.823589367025549220E-14, -2.051221275114927564E-15, 16.67942286340598557 ) ) ;
#118 = AXIS2_PLACEMENT_3D ( 'NONE', #103, #65, #132 ) ;
#119 = DIRECTION ( 'NONE',  ( -3.491481338843133355E-15, 1.224646799147353207E-16, -1.000000000000000000 ) ) ;
#120 = PLANE ( 'NONE',  #118 ) ;
#121 = ADVANCED_FACE ( 'NONE', ( #49, #181 ), #173, .T. ) ;
#122 = CALENDAR_DATE ( 2021, 28, 10 ) ;
#123 = PERSON_AND_ORGANIZATION ( #206, #32 ) ;
#124 = EDGE_CURVE ( 'NONE', #16, #16, #135, .T. ) ;
#125 = APPROVAL_DATE_TIME ( #136, #193 ) ;
#126 = DATE_AND_TIME ( #170, #83 ) ;
#127 = APPROVAL_PERSON_ORGANIZATION ( #7, #152, #39 ) ;
#128 = CALENDAR_DATE ( 2021, 28, 10 ) ;
#129 = DESIGN_CONTEXT ( 'detailed design', #45, 'design' ) ;
#130 = DIRECTION ( 'NONE',  ( -3.491481338843133355E-15, 1.229791517316362731E-16, -1.000000000000000000 ) ) ;
#131 = CARTESIAN_POINT ( 'NONE',  ( 5.237222008264700033E-14, 1.124819836996388553E-32, 15.00000000000000000 ) ) ;
#132 = DIRECTION ( 'NONE',  ( -4.275831445896958607E-31, -1.000000000000000000, -1.224646799147353207E-16 ) ) ;
#133 = CARTESIAN_POINT ( 'NONE',  ( 1.334335044876566746E-15, -1.050000000000000044, 0.3821687459795174435 ) ) ;
#134 = FACE_OUTER_BOUND ( 'NONE', #61, .T. ) ;
#135 = CIRCLE ( 'NONE', #18, 1.199999999999999956 ) ;
#136 = DATE_AND_TIME ( #55, #210 ) ;
#137 = CIRCLE ( 'NONE', #78, 1.499999999999999778 ) ;
#138 = PERSON_AND_ORGANIZATION_ROLE ( 'classification_officer' ) ;
#139 = COORDINATED_UNIVERSAL_TIME_OFFSET ( 1, 0, .AHEAD. ) ;
#140 = EDGE_LOOP ( 'NONE', ( #8 ) ) ;
#141 = MANIFOLD_SOLID_BREP ( 'Corps-Déplacer/Copier1[1]', #148 ) ;
#142 = DATE_TIME_ROLE ( 'classification_date' ) ;
#143 = EDGE_LOOP ( 'NONE', ( #97 ) ) ;
#144 = CIRCLE ( 'NONE', #157, 1.499999999999998668 ) ;
#145 = EDGE_LOOP ( 'NONE', ( #110 ) ) ;
#146 = DIRECTION ( 'NONE',  ( -3.491481338843133355E-15, 1.224646799147353207E-16, -1.000000000000000000 ) ) ;
#147 = ADVANCED_FACE ( 'NONE', ( #167, #151 ), #200, .T. ) ;
#148 = CLOSED_SHELL ( 'NONE', ( #6, #121, #69, #66, #9 ) ) ;
#149 = DIRECTION ( 'NONE',  ( 4.275831445896958607E-31, 1.000000000000000000, 1.224646799147353207E-16 ) ) ;
#150 = CARTESIAN_POINT ( 'NONE',  ( 5.823589367025549220E-14, -2.051221275114927564E-15, 16.67942286340598557 ) ) ;
#151 = FACE_OUTER_BOUND ( 'NONE', #22, .T. ) ;
#152 = APPROVAL ( #177, 'UNSPECIFIED' ) ;
#153 = CARTESIAN_POINT ( 'NONE',  ( 5.237222008264700033E-14, 1.049999999999998490, 15.00000000000000000 ) ) ;
#154 = PERSON_AND_ORGANIZATION_ROLE ( 'design_supplier' ) ;
#155 = APPLICATION_PROTOCOL_DEFINITION ( 'international standard', 'config_control_design', 1994, #116 ) ;
#156 = PRODUCT_DEFINITION_SHAPE ( 'NONE', 'NONE',  #208 ) ;
#157 = AXIS2_PLACEMENT_3D ( 'NONE', #117, #130, #169 ) ;
#158 = ORIENTED_EDGE ( 'NONE', *, *, #26, .F. ) ;
#159 = DATE_AND_TIME ( #190, #11 ) ;
#160 = UNCERTAINTY_MEASURE_WITH_UNIT (LENGTH_MEASURE( 1.000000000000000082E-05 ), #174, 'distance_accuracy_value', 'NONE');
#161 = CC_DESIGN_DATE_AND_TIME_ASSIGNMENT ( #159, #142, ( #94 ) ) ;
#162 = CARTESIAN_POINT ( 'NONE',  ( 1.326762908760390423E-13, -4.653657836759941941E-15, 38.00000000000000000 ) ) ;
#163 = CIRCLE ( 'NONE', #213, 1.050000000000000266 ) ;
#164 = CARTESIAN_POINT ( 'NONE',  ( 1.326762908760390423E-13, 8.998558695971077224E-33, 38.00000000000000000 ) ) ;
#165 = VERTEX_POINT ( 'NONE', #133 ) ;
#166 = PRODUCT_RELATED_PRODUCT_CATEGORY ( 'detail', '', ( #191 ) ) ;
#167 = FACE_OUTER_BOUND ( 'NONE', #195, .T. ) ;
#168 = CC_DESIGN_APPROVAL ( #193, ( #215 ) ) ;
#169 = DIRECTION ( 'NONE',  ( 0.0000000000000000000, 1.000000000000000000, 0.0000000000000000000 ) ) ;
#170 = CALENDAR_DATE ( 2021, 28, 10 ) ;
#171 = PERSON_AND_ORGANIZATION ( #206, #32 ) ;
#172 = LOCAL_TIME ( 11, 23, 18.00000000000000000, #17 ) ;
#173 = CONICAL_SURFACE ( 'NONE', #41, 1.199999999999999956, 0.7853981633974453924 ) ;
#174 =( LENGTH_UNIT ( ) NAMED_UNIT ( * ) SI_UNIT ( .MILLI., .METRE. ) );
#175 = COORDINATED_UNIVERSAL_TIME_OFFSET ( 1, 0, .AHEAD. ) ;
#176 = EDGE_LOOP ( 'NONE', ( #21 ) ) ;
#177 = APPROVAL_STATUS ( 'not_yet_approved' ) ;
#178 = FACE_OUTER_BOUND ( 'NONE', #111, .T. ) ;
#179 = DIRECTION ( 'NONE',  ( 4.275831445896958607E-31, 1.000000000000000000, 1.224646799147353207E-16 ) ) ;
#180 = ORIENTED_EDGE ( 'NONE', *, *, #81, .F. ) ;
#181 = FACE_BOUND ( 'NONE', #212, .T. ) ;
#182 = DIRECTION ( 'NONE',  ( 0.0000000000000000000, 1.000000000000000000, 0.0000000000000000000 ) ) ;
#183 = AXIS2_PLACEMENT_3D ( 'NONE', #60, #112, #179 ) ;
#184 = CIRCLE ( 'NONE', #12, 1.050000000000000266 ) ;
#185 = DIRECTION ( 'NONE',  ( 4.293794133377663121E-31, 1.000000000000000000, 1.229791517316362731E-16 ) ) ;
#186 = CARTESIAN_POINT ( 'NONE',  ( 5.237222008264700033E-14, 1.049999999999998490, 15.00000000000000000 ) ) ;
#187 = CARTESIAN_POINT ( 'NONE',  ( 1.316288464743861212E-13, -4.616918432785521081E-15, 37.69999999999999574 ) ) ;
#188 = DATE_AND_TIME ( #122, #172 ) ;
#189 = MECHANICAL_CONTEXT ( 'NONE', #116, 'mechanical' ) ;
#190 = CALENDAR_DATE ( 2021, 28, 10 ) ;
#191 = PRODUCT ( '963111', '963111', '', ( #189 ) ) ;
#192 = PERSON_AND_ORGANIZATION_ROLE ( 'creator' ) ;
#193 = APPROVAL ( #33, 'UNSPECIFIED' ) ;
#194 = CC_DESIGN_PERSON_AND_ORGANIZATION_ASSIGNMENT ( #72, #138, ( #94 ) ) ;
#195 = EDGE_LOOP ( 'NONE', ( #46 ) ) ;
#196 = ORIENTED_EDGE ( 'NONE', *, *, #124, .T. ) ;
#197 = CC_DESIGN_PERSON_AND_ORGANIZATION_ASSIGNMENT ( #205, #192, ( #215 ) ) ;
#198 = CARTESIAN_POINT ( 'NONE',  ( 1.906192921252232855E-15, -6.686024735685322183E-17, 0.5459553513993090634 ) ) ;
#199 = FACE_OUTER_BOUND ( 'NONE', #58, .T. ) ;
#200 = CYLINDRICAL_SURFACE ( 'NONE', #105, 1.050000000000000044 ) ;
#201 = CONICAL_SURFACE ( 'NONE', #10, 1.499999999999995559, 1.221730476396026388 ) ;
#202 = CARTESIAN_POINT ( 'NONE',  ( 1.316288464743861212E-13, 1.499999999999995337, 37.69999999999999574 ) ) ;
#203 = CARTESIAN_POINT ( 'NONE',  ( 1.334335044876567140E-15, -4.680217314979739333E-17, 0.3821687459795175545 ) ) ;
#204 = PERSON_AND_ORGANIZATION ( #206, #32 ) ;
#205 = PERSON_AND_ORGANIZATION ( #206, #32 ) ;
#206 = PERSON ( 'UNSPECIFIED', 'UNSPECIFIED', 'UNSPECIFIED', ('UNSPECIFIED'), ('UNSPECIFIED'), ('UNSPECIFIED') ) ;
#207 = VERTEX_POINT ( 'NONE', #2 ) ;
#208 = PRODUCT_DEFINITION ( 'UNKNOWN', '', #215, #129 ) ;
#209 =( NAMED_UNIT ( * ) SI_UNIT ( $, .STERADIAN. ) SOLID_ANGLE_UNIT ( ) );
#210 = LOCAL_TIME ( 11, 23, 18.00000000000000000, #139 ) ;
#211 = PERSON_AND_ORGANIZATION ( #206, #32 ) ;
#212 = EDGE_LOOP ( 'NONE', ( #196 ) ) ;
#213 = AXIS2_PLACEMENT_3D ( 'NONE', #28, #221, #223 ) ;
#214 = ORIENTED_EDGE ( 'NONE', *, *, #124, .F. ) ;
#215 = PRODUCT_DEFINITION_FORMATION_WITH_SPECIFIED_SOURCE ( 'ANY', '', #191, .NOT_KNOWN. ) ;
#216 = AXIS2_PLACEMENT_3D ( 'NONE', #150, #86, #31 ) ;
#217 = CYLINDRICAL_SURFACE ( 'NONE', #183, 1.499999999999998446 ) ;
#218 = FACE_BOUND ( 'NONE', #145, .T. ) ;
#219 = FACE_OUTER_BOUND ( 'NONE', #42, .T. ) ;
#220 = CC_DESIGN_PERSON_AND_ORGANIZATION_ASSIGNMENT ( #37, #53, ( #208 ) ) ;
#221 = DIRECTION ( 'NONE',  ( -3.491481338843133355E-15, 1.229791517316362731E-16, -1.000000000000000000 ) ) ;
#222 = MANIFOLD_SOLID_BREP ( 'Corps-Déplacer/Copier1[2]', #95 ) ;
#223 = DIRECTION ( 'NONE',  ( 0.0000000000000000000, 1.000000000000000000, 0.0000000000000000000 ) ) ;
ENDSEC;
END-ISO-10303-21;
