ISO-10303-21;
HEADER;
FILE_DESCRIPTION (( 'STEP AP203' ),
    '1' );
FILE_NAME ('963109.step',
    '2021-10-28T09:23:18',
    ( '' ),
    ( '' ),
    'SwSTEP 2.0',
    'SolidWorks 2019',
    '' );
FILE_SCHEMA (( 'CONFIG_CONTROL_DESIGN' ));
ENDSEC;

DATA;
#1 = EDGE_LOOP ( 'NONE', ( #103 ) ) ;
#2 = DIRECTION ( 'NONE',  ( 3.491481338843133355E-15, -1.224646799147353207E-16, 1.000000000000000000 ) ) ;
#3 = DIRECTION ( 'NONE',  ( -3.757912086609241180E-31, -1.000000000000000000, -1.057758217059028854E-16 ) ) ;
#4 = CIRCLE ( 'NONE', #74, 1.499999999999999778 ) ;
#5 = DIRECTION ( 'NONE',  ( 3.491481338843133355E-15, -1.224646799147353207E-16, 1.000000000000000000 ) ) ;
#6 = ADVANCED_FACE ( 'NONE', ( #32 ), #158, .T. ) ;
#7 = DIRECTION ( 'NONE',  ( -4.275831445896958607E-31, -1.000000000000000000, -1.224646799147353207E-16 ) ) ;
#8 = CARTESIAN_POINT ( 'NONE',  ( 0.0000000000000000000, 0.0000000000000000000, 0.0000000000000000000 ) ) ;
#9 = SECURITY_CLASSIFICATION ( '', '', #82 ) ;
#10 = DIRECTION ( 'NONE',  ( 0.0000000000000000000, 1.000000000000000000, 0.0000000000000000000 ) ) ;
#11 = PERSON_AND_ORGANIZATION ( #65, #43 ) ;
#12 = APPROVAL_STATUS ( 'not_yet_approved' ) ;
#13 = VERTEX_POINT ( 'NONE', #169 ) ;
#14 = AXIS2_PLACEMENT_3D ( 'NONE', #21, #189, #163 ) ;
#15 = EDGE_CURVE ( 'NONE', #210, #210, #126, .T. ) ;
#16 = VERTEX_POINT ( 'NONE', #64 ) ;
#17 = PERSON_AND_ORGANIZATION ( #65, #43 ) ;
#18 = DATE_TIME_ROLE ( 'classification_date' ) ;
#19 = APPLICATION_CONTEXT ( 'configuration controlled 3d designs of mechanical parts and assemblies' ) ;
#20 = ORIENTED_EDGE ( 'NONE', *, *, #220, .T. ) ;
#21 = CARTESIAN_POINT ( 'NONE',  ( 5.237222008264700033E-14, -1.844687275974544269E-15, 15.00000000000000000 ) ) ;
#22 = CC_DESIGN_PERSON_AND_ORGANIZATION_ASSIGNMENT ( #99, #199, ( #223 ) ) ;
#23 = DIRECTION ( 'NONE',  ( -3.491481338843133355E-15, 1.224646799147353207E-16, -1.000000000000000000 ) ) ;
#24 = CC_DESIGN_APPROVAL ( #45, ( #9 ) ) ;
#25 = CARTESIAN_POINT ( 'NONE',  ( 1.316288464743861212E-13, 1.499999999999995337, 37.69999999999999574 ) ) ;
#26 = CARTESIAN_POINT ( 'NONE',  ( 0.0000000000000000000, 0.0000000000000000000, 0.0000000000000000000 ) ) ;
#27 = AXIS2_PLACEMENT_3D ( 'NONE', #149, #91, #73 ) ;
#28 = DIRECTION ( 'NONE',  ( 0.0000000000000000000, 0.0000000000000000000, 1.000000000000000000 ) ) ;
#29 = DATE_TIME_ROLE ( 'creation_date' ) ;
#30 = DATE_AND_TIME ( #31, #209 ) ;
#31 = CALENDAR_DATE ( 2021, 28, 10 ) ;
#32 = FACE_OUTER_BOUND ( 'NONE', #83, .T. ) ;
#33 = LOCAL_TIME ( 11, 23, 18.00000000000000000, #98 ) ;
#34 = COORDINATED_UNIVERSAL_TIME_OFFSET ( 1, 0, .AHEAD. ) ;
#35 = EDGE_LOOP ( 'NONE', ( #84 ) ) ;
#36 = MANIFOLD_SOLID_BREP ( 'Corps-Déplacer/Copier1[1]', #37 ) ;
#37 = CLOSED_SHELL ( 'NONE', ( #121, #129, #178, #166, #100 ) ) ;
#38 = DIRECTION ( 'NONE',  ( 3.491481338843133355E-15, -1.229791517316362731E-16, 1.000000000000000000 ) ) ;
#39 = CARTESIAN_POINT ( 'NONE',  ( 1.326762908760390423E-13, -4.653657836759941941E-15, 38.00000000000000000 ) ) ;
#40 = DIRECTION ( 'NONE',  ( 0.0000000000000000000, -1.000000000000000000, 0.0000000000000000000 ) ) ;
#41 = FACE_OUTER_BOUND ( 'NONE', #35, .T. ) ;
#42 = EDGE_CURVE ( 'NONE', #89, #89, #4, .T. ) ;
#43 = ORGANIZATION ( 'UNSPECIFIED', 'UNSPECIFIED', '' ) ;
#44 = CC_DESIGN_SECURITY_CLASSIFICATION ( #9, ( #223 ) ) ;
#45 = APPROVAL ( #104, 'UNSPECIFIED' ) ;
#46 = DIRECTION ( 'NONE',  ( 1.000000000000000000, 0.0000000000000000000, 0.0000000000000000000 ) ) ;
#47 = VERTEX_POINT ( 'NONE', #198 ) ;
#48 = COORDINATED_UNIVERSAL_TIME_OFFSET ( 1, 0, .AHEAD. ) ;
#49 = APPLICATION_CONTEXT ( 'configuration controlled 3d designs of mechanical parts and assemblies' ) ;
#50 = ADVANCED_FACE ( 'NONE', ( #80, #106 ), #105, .T. ) ;
#51 = APPROVAL_DATE_TIME ( #202, #45 ) ;
#52 = ADVANCED_BREP_SHAPE_REPRESENTATION ( '963109', ( #36, #181, #90 ), #97 ) ;
#53 = ORIENTED_EDGE ( 'NONE', *, *, #201, .T. ) ;
#54 = EDGE_LOOP ( 'NONE', ( #144 ) ) ;
#55 = CC_DESIGN_APPROVAL ( #125, ( #157 ) ) ;
#56 = ADVANCED_FACE ( 'NONE', ( #41 ), #92, .T. ) ;
#57 = PERSON_AND_ORGANIZATION ( #65, #43 ) ;
#58 = FACE_OUTER_BOUND ( 'NONE', #184, .T. ) ;
#59 = FACE_OUTER_BOUND ( 'NONE', #54, .T. ) ;
#60 = FACE_BOUND ( 'NONE', #172, .T. ) ;
#61 = PLANE ( 'NONE',  #78 ) ;
#62 = EDGE_CURVE ( 'NONE', #164, #164, #188, .T. ) ;
#63 = FACE_OUTER_BOUND ( 'NONE', #122, .T. ) ;
#64 = CARTESIAN_POINT ( 'NONE',  ( 1.326762908760390423E-13, 1.199999999999995293, 38.00000000000000000 ) ) ;
#65 = PERSON ( 'UNSPECIFIED', 'UNSPECIFIED', 'UNSPECIFIED', ('UNSPECIFIED'), ('UNSPECIFIED'), ('UNSPECIFIED') ) ;
#66 = DATE_AND_TIME ( #153, #193 ) ;
#67 = APPROVAL_PERSON_ORGANIZATION ( #118, #125, #134 ) ;
#68 = PERSON_AND_ORGANIZATION ( #65, #43 ) ;
#69 = APPROVAL_STATUS ( 'not_yet_approved' ) ;
#70 = ORIENTED_EDGE ( 'NONE', *, *, #201, .F. ) ;
#71 = LOCAL_TIME ( 11, 23, 18.00000000000000000, #114 ) ;
#72 = ORIENTED_EDGE ( 'NONE', *, *, #15, .T. ) ;
#73 = DIRECTION ( 'NONE',  ( 0.0000000000000000000, 1.000000000000000000, 0.0000000000000000000 ) ) ;
#74 = AXIS2_PLACEMENT_3D ( 'NONE', #167, #165, #173 ) ;
#75 = FACE_OUTER_BOUND ( 'NONE', #206, .T. ) ;
#76 = DIRECTION ( 'NONE',  ( -3.491481338843133355E-15, 1.224646799147353207E-16, -1.000000000000000000 ) ) ;
#77 = FACE_OUTER_BOUND ( 'NONE', #1, .T. ) ;
#78 = AXIS2_PLACEMENT_3D ( 'NONE', #150, #148, #127 ) ;
#79 = AXIS2_PLACEMENT_3D ( 'NONE', #208, #5, #7 ) ;
#80 = FACE_OUTER_BOUND ( 'NONE', #159, .T. ) ;
#81 = APPROVAL_DATE_TIME ( #183, #125 ) ;
#82 = SECURITY_CLASSIFICATION_LEVEL ( 'unclassified' ) ;
#83 = EDGE_LOOP ( 'NONE', ( #53 ) ) ;
#84 = ORIENTED_EDGE ( 'NONE', *, *, #62, .F. ) ;
#85 = AXIS2_PLACEMENT_3D ( 'NONE', #39, #133, #107 ) ;
#86 = CC_DESIGN_DATE_AND_TIME_ASSIGNMENT ( #152, #18, ( #9 ) ) ;
#87 = PRODUCT ( '963109', '963109', '', ( #95 ) ) ;
#88 = PLANE ( 'NONE',  #168 ) ;
#89 = VERTEX_POINT ( 'NONE', #25 ) ;
#90 = AXIS2_PLACEMENT_3D ( 'NONE', #136, #28, #46 ) ;
#91 = DIRECTION ( 'NONE',  ( -3.491481338843133355E-15, 1.229791517316362731E-16, -1.000000000000000000 ) ) ;
#92 = PLANE ( 'NONE',  #79 ) ;
#93 = AXIS2_PLACEMENT_3D ( 'NONE', #8, #213, #211 ) ;
#94 = APPLICATION_PROTOCOL_DEFINITION ( 'international standard', 'config_control_design', 1994, #49 ) ;
#95 = MECHANICAL_CONTEXT ( 'NONE', #49, 'mechanical' ) ;
#96 = PERSON_AND_ORGANIZATION ( #65, #43 ) ;
#97 =( GEOMETRIC_REPRESENTATION_CONTEXT ( 3 ) GLOBAL_UNCERTAINTY_ASSIGNED_CONTEXT ( ( #119 ) ) GLOBAL_UNIT_ASSIGNED_CONTEXT ( ( #155, #195, #116 ) ) REPRESENTATION_CONTEXT ( 'NONE', 'WORKASPACE' ) );
#98 = COORDINATED_UNIVERSAL_TIME_OFFSET ( 1, 0, .AHEAD. ) ;
#99 = PERSON_AND_ORGANIZATION ( #65, #43 ) ;
#100 = ADVANCED_FACE ( 'NONE', ( #75 ), #61, .F. ) ;
#101 = CIRCLE ( 'NONE', #85, 1.199999999999999956 ) ;
#102 = CARTESIAN_POINT ( 'NONE',  ( 1.906192921252232855E-15, -6.686024735685322183E-17, 0.5459553513993090634 ) ) ;
#103 = ORIENTED_EDGE ( 'NONE', *, *, #42, .F. ) ;
#104 = APPROVAL_STATUS ( 'not_yet_approved' ) ;
#105 = CYLINDRICAL_SURFACE ( 'NONE', #171, 1.024999999999999911 ) ;
#106 = FACE_OUTER_BOUND ( 'NONE', #222, .T. ) ;
#107 = DIRECTION ( 'NONE',  ( 0.0000000000000000000, 1.000000000000000000, 0.0000000000000000000 ) ) ;
#108 = CLOSED_SHELL ( 'NONE', ( #56, #50, #6 ) ) ;
#109 = LOCAL_TIME ( 11, 23, 18.00000000000000000, #34 ) ;
#110 = DIRECTION ( 'NONE',  ( -3.491481338843133355E-15, 1.229791517316362731E-16, -1.000000000000000000 ) ) ;
#111 = CARTESIAN_POINT ( 'NONE',  ( 1.326762908760390423E-13, -4.653657836759941941E-15, 38.00000000000000000 ) ) ;
#112 = CC_DESIGN_PERSON_AND_ORGANIZATION_ASSIGNMENT ( #11, #180, ( #157 ) ) ;
#113 = CARTESIAN_POINT ( 'NONE',  ( 5.237222008264700033E-14, 1.024999999999998135, 15.00000000000000000 ) ) ;
#114 = COORDINATED_UNIVERSAL_TIME_OFFSET ( 1, 0, .AHEAD. ) ;
#115 = CALENDAR_DATE ( 2021, 28, 10 ) ;
#116 =( NAMED_UNIT ( * ) SI_UNIT ( $, .STERADIAN. ) SOLID_ANGLE_UNIT ( ) );
#117 = PRODUCT_RELATED_PRODUCT_CATEGORY ( 'detail', '', ( #87 ) ) ;
#118 = PERSON_AND_ORGANIZATION ( #65, #43 ) ;
#119 = UNCERTAINTY_MEASURE_WITH_UNIT (LENGTH_MEASURE( 1.000000000000000082E-05 ), #155, 'distance_accuracy_value', 'NONE');
#120 = CARTESIAN_POINT ( 'NONE',  ( 5.856165331401152724E-14, -2.062695386178282696E-15, 16.77272413359520797 ) ) ;
#121 = ADVANCED_FACE ( 'NONE', ( #59, #191 ), #190, .T. ) ;
#122 = EDGE_LOOP ( 'NONE', ( #72 ) ) ;
#123 = SHAPE_DEFINITION_REPRESENTATION ( #212, #52 ) ;
#124 = ORIENTED_EDGE ( 'NONE', *, *, #62, .T. ) ;
#125 = APPROVAL ( #12, 'UNSPECIFIED' ) ;
#126 = CIRCLE ( 'NONE', #140, 1.499999999999999112 ) ;
#127 = DIRECTION ( 'NONE',  ( -4.275831445896958607E-31, -1.000000000000000000, -1.224646799147353207E-16 ) ) ;
#128 = CARTESIAN_POINT ( 'NONE',  ( 5.856165331401152724E-14, 1.499999999999996891, 16.77272413359520797 ) ) ;
#129 = ADVANCED_FACE ( 'NONE', ( #77, #146 ), #216, .T. ) ;
#130 = CARTESIAN_POINT ( 'NONE',  ( 5.856165331401152724E-14, -2.062695386178282696E-15, 16.77272413359520797 ) ) ;
#131 = DIRECTION ( 'NONE',  ( -3.491481338843133355E-15, 1.224646799147353207E-16, -1.000000000000000000 ) ) ;
#132 = APPROVAL_PERSON_ORGANIZATION ( #179, #192, #200 ) ;
#133 = DIRECTION ( 'NONE',  ( -3.491481338843133355E-15, 1.224646799147353207E-16, -1.000000000000000000 ) ) ;
#134 = APPROVAL_ROLE ( '' ) ;
#135 = CIRCLE ( 'NONE', #27, 1.025000000000000133 ) ;
#136 = CARTESIAN_POINT ( 'NONE',  ( 0.0000000000000000000, 0.0000000000000000000, 0.0000000000000000000 ) ) ;
#137 = PERSON_AND_ORGANIZATION_ROLE ( 'creator' ) ;
#138 = APPLICATION_PROTOCOL_DEFINITION ( 'international standard', 'config_control_design', 1994, #19 ) ;
#139 = DESIGN_CONTEXT ( 'detailed design', #19, 'design' ) ;
#140 = AXIS2_PLACEMENT_3D ( 'NONE', #120, #110, #10 ) ;
#141 = EDGE_LOOP ( 'NONE', ( #219 ) ) ;
#142 = ORIENTED_EDGE ( 'NONE', *, *, #42, .T. ) ;
#143 = CALENDAR_DATE ( 2021, 28, 10 ) ;
#144 = ORIENTED_EDGE ( 'NONE', *, *, #15, .F. ) ;
#145 = DIRECTION ( 'NONE',  ( -5.135813185032644414E-31, -1.000000000000000000, -1.445602896647343601E-16 ) ) ;
#146 = FACE_BOUND ( 'NONE', #141, .T. ) ;
#147 = CC_DESIGN_PERSON_AND_ORGANIZATION_ASSIGNMENT ( #68, #215, ( #87 ) ) ;
#148 = DIRECTION ( 'NONE',  ( 3.491481338843133355E-15, -1.224646799147353207E-16, 1.000000000000000000 ) ) ;
#149 = CARTESIAN_POINT ( 'NONE',  ( 5.237222008264700033E-14, -1.844687275974544269E-15, 15.00000000000000000 ) ) ;
#150 = CARTESIAN_POINT ( 'NONE',  ( 5.237222008264700033E-14, 1.124819836996388553E-32, 15.00000000000000000 ) ) ;
#151 = AXIS2_PLACEMENT_3D ( 'NONE', #102, #2, #145 ) ;
#152 = DATE_AND_TIME ( #156, #33 ) ;
#153 = CALENDAR_DATE ( 2021, 28, 10 ) ;
#154 = CONICAL_SURFACE ( 'NONE', #162, 1.499999999999999112, 0.2617993877991502405 ) ;
#155 =( LENGTH_UNIT ( ) NAMED_UNIT ( * ) SI_UNIT ( .MILLI., .METRE. ) );
#156 = CALENDAR_DATE ( 2021, 28, 10 ) ;
#157 = PRODUCT_DEFINITION ( 'UNKNOWN', '', #223, #139 ) ;
#158 = CONICAL_SURFACE ( 'NONE', #151, 1.499999999999995559, 1.221730476396026388 ) ;
#159 = EDGE_LOOP ( 'NONE', ( #124 ) ) ;
#160 = CC_DESIGN_PERSON_AND_ORGANIZATION_ASSIGNMENT ( #17, #182, ( #9 ) ) ;
#161 = CARTESIAN_POINT ( 'NONE',  ( 1.326762908760390423E-13, 8.998558695971077224E-33, 38.00000000000000000 ) ) ;
#162 = AXIS2_PLACEMENT_3D ( 'NONE', #130, #38, #40 ) ;
#163 = DIRECTION ( 'NONE',  ( 0.0000000000000000000, 1.000000000000000000, 0.0000000000000000000 ) ) ;
#164 = VERTEX_POINT ( 'NONE', #113 ) ;
#165 = DIRECTION ( 'NONE',  ( -3.491481338843133355E-15, 1.224646799147353207E-16, -1.000000000000000000 ) ) ;
#166 = ADVANCED_FACE ( 'NONE', ( #60, #63 ), #154, .T. ) ;
#167 = CARTESIAN_POINT ( 'NONE',  ( 1.316288464743861212E-13, -4.616918432785521081E-15, 37.69999999999999574 ) ) ;
#168 = AXIS2_PLACEMENT_3D ( 'NONE', #161, #131, #175 ) ;
#169 = CARTESIAN_POINT ( 'NONE',  ( 1.302565162855695475E-15, -1.024999999999999911, 0.3730694901228620575 ) ) ;
#170 = CC_DESIGN_PERSON_AND_ORGANIZATION_ASSIGNMENT ( #96, #137, ( #223 ) ) ;
#171 = AXIS2_PLACEMENT_3D ( 'NONE', #26, #176, #194 ) ;
#172 = EDGE_LOOP ( 'NONE', ( #186 ) ) ;
#173 = DIRECTION ( 'NONE',  ( 0.0000000000000000000, 1.000000000000000000, 0.0000000000000000000 ) ) ;
#174 = CARTESIAN_POINT ( 'NONE',  ( 1.302565162855695870E-15, -4.568783569384982402E-17, 0.3730694901228621685 ) ) ;
#175 = DIRECTION ( 'NONE',  ( 4.275831445896958607E-31, 1.000000000000000000, 1.224646799147353207E-16 ) ) ;
#176 = DIRECTION ( 'NONE',  ( -3.491481338843133355E-15, 1.229791517316362731E-16, -1.000000000000000000 ) ) ;
#177 = EDGE_CURVE ( 'NONE', #16, #16, #101, .T. ) ;
#178 = ADVANCED_FACE ( 'NONE', ( #58 ), #88, .F. ) ;
#179 = PERSON_AND_ORGANIZATION ( #65, #43 ) ;
#180 = PERSON_AND_ORGANIZATION_ROLE ( 'creator' ) ;
#181 = MANIFOLD_SOLID_BREP ( 'Corps-Déplacer/Copier1[2]', #108 ) ;
#182 = PERSON_AND_ORGANIZATION_ROLE ( 'classification_officer' ) ;
#183 = DATE_AND_TIME ( #115, #71 ) ;
#184 = EDGE_LOOP ( 'NONE', ( #221 ) ) ;
#185 = APPROVAL_PERSON_ORGANIZATION ( #57, #45, #205 ) ;
#186 = ORIENTED_EDGE ( 'NONE', *, *, #220, .F. ) ;
#187 = CC_DESIGN_DATE_AND_TIME_ASSIGNMENT ( #66, #29, ( #157 ) ) ;
#188 = CIRCLE ( 'NONE', #14, 1.025000000000000133 ) ;
#189 = DIRECTION ( 'NONE',  ( -3.491481338843133355E-15, 1.229791517316362731E-16, -1.000000000000000000 ) ) ;
#190 = CYLINDRICAL_SURFACE ( 'NONE', #93, 1.499999999999998446 ) ;
#191 = FACE_OUTER_BOUND ( 'NONE', #207, .T. ) ;
#192 = APPROVAL ( #69, 'UNSPECIFIED' ) ;
#193 = LOCAL_TIME ( 11, 23, 18.00000000000000000, #217 ) ;
#194 = DIRECTION ( 'NONE',  ( 4.293794133377662246E-31, 1.000000000000000000, 1.229791517316362731E-16 ) ) ;
#195 =( NAMED_UNIT ( * ) PLANE_ANGLE_UNIT ( ) SI_UNIT ( $, .RADIAN. ) );
#196 = APPROVAL_DATE_TIME ( #30, #192 ) ;
#197 = AXIS2_PLACEMENT_3D ( 'NONE', #174, #76, #3 ) ;
#198 = CARTESIAN_POINT ( 'NONE',  ( 5.237222008264700033E-14, 1.024999999999998135, 15.00000000000000000 ) ) ;
#199 = PERSON_AND_ORGANIZATION_ROLE ( 'design_supplier' ) ;
#200 = APPROVAL_ROLE ( '' ) ;
#201 = EDGE_CURVE ( 'NONE', #13, #13, #218, .T. ) ;
#202 = DATE_AND_TIME ( #143, #109 ) ;
#203 = AXIS2_PLACEMENT_3D ( 'NONE', #111, #23, #214 ) ;
#204 = CC_DESIGN_APPROVAL ( #192, ( #223 ) ) ;
#205 = APPROVAL_ROLE ( '' ) ;
#206 = EDGE_LOOP ( 'NONE', ( #20 ) ) ;
#207 = EDGE_LOOP ( 'NONE', ( #142 ) ) ;
#208 = CARTESIAN_POINT ( 'NONE',  ( 5.237222008264700033E-14, 1.124819836996388553E-32, 15.00000000000000000 ) ) ;
#209 = LOCAL_TIME ( 11, 23, 18.00000000000000000, #48 ) ;
#210 = VERTEX_POINT ( 'NONE', #128 ) ;
#211 = DIRECTION ( 'NONE',  ( 4.275831445896958607E-31, 1.000000000000000000, 1.224646799147353207E-16 ) ) ;
#212 = PRODUCT_DEFINITION_SHAPE ( 'NONE', 'NONE',  #157 ) ;
#213 = DIRECTION ( 'NONE',  ( -3.491481338843133355E-15, 1.224646799147353207E-16, -1.000000000000000000 ) ) ;
#214 = DIRECTION ( 'NONE',  ( 0.0000000000000000000, 1.000000000000000000, 0.0000000000000000000 ) ) ;
#215 = PERSON_AND_ORGANIZATION_ROLE ( 'design_owner' ) ;
#216 = CONICAL_SURFACE ( 'NONE', #203, 1.199999999999999956, 0.7853981633974453924 ) ;
#217 = COORDINATED_UNIVERSAL_TIME_OFFSET ( 1, 0, .AHEAD. ) ;
#218 = CIRCLE ( 'NONE', #197, 1.024999999999999911 ) ;
#219 = ORIENTED_EDGE ( 'NONE', *, *, #177, .T. ) ;
#220 = EDGE_CURVE ( 'NONE', #47, #47, #135, .T. ) ;
#221 = ORIENTED_EDGE ( 'NONE', *, *, #177, .F. ) ;
#222 = EDGE_LOOP ( 'NONE', ( #70 ) ) ;
#223 = PRODUCT_DEFINITION_FORMATION_WITH_SPECIFIED_SOURCE ( 'ANY', '', #87, .NOT_KNOWN. ) ;
ENDSEC;
END-ISO-10303-21;
