ISO-10303-21;
HEADER;
FILE_DESCRIPTION (( 'STEP AP203' ),
    '1' );
FILE_NAME ('963057.step',
    '2021-11-26T14:47:30',
    ( '' ),
    ( '' ),
    'SwSTEP 2.0',
    'SolidWorks 2019',
    '' );
FILE_SCHEMA (( 'CONFIG_CONTROL_DESIGN' ));
ENDSEC;

DATA;
#1 = DIRECTION ( 'NONE',  ( 3.491481338843133355E-15, -1.224646799147352961E-16, 1.000000000000000000 ) ) ;
#2 = DIRECTION ( 'NONE',  ( 3.491481338843133355E-15, -1.224646799147352961E-16, 1.000000000000000000 ) ) ;
#3 = APPROVAL_ROLE ( '' ) ;
#4 = PERSON_AND_ORGANIZATION ( #50, #66 ) ;
#5 = DATE_AND_TIME ( #173, #266 ) ;
#6 = ADVANCED_FACE ( 'NONE', ( #169, #259 ), #78, .T. ) ;
#7 = ADVANCED_FACE ( 'NONE', ( #271, #225 ), #35, .T. ) ;
#8 = EDGE_LOOP ( 'NONE', ( #186 ) ) ;
#9 = CIRCLE ( 'NONE', #161, 1.500000000000003331 ) ;
#10 = EDGE_LOOP ( 'NONE', ( #167 ) ) ;
#11 = CC_DESIGN_DATE_AND_TIME_ASSIGNMENT ( #5, #92, ( #192 ) ) ;
#12 = FACE_OUTER_BOUND ( 'NONE', #8, .T. ) ;
#13 = DIRECTION ( 'NONE',  ( -3.491481338843133355E-15, 1.224646799147352961E-16, -1.000000000000000000 ) ) ;
#14 = AXIS2_PLACEMENT_3D ( 'NONE', #63, #2, #34 ) ;
#15 = DIRECTION ( 'NONE',  ( -3.491481338843133355E-15, 1.224646799147352961E-16, -1.000000000000000000 ) ) ;
#16 = PRODUCT_DEFINITION_FORMATION_WITH_SPECIFIED_SOURCE ( 'ANY', '', #126, .NOT_KNOWN. ) ;
#17 = DIRECTION ( 'NONE',  ( 4.275831445896957731E-31, 1.000000000000000000, 1.224646799147353207E-16 ) ) ;
#18 = CARTESIAN_POINT ( 'NONE',  ( 4.304751857534915268E-14, 1.499999999999995559, 12.32929934249985493 ) ) ;
#19 = PERSON_AND_ORGANIZATION_ROLE ( 'design_owner' ) ;
#20 = DIRECTION ( 'NONE',  ( 3.491481338843133355E-15, -1.224646799147352961E-16, 1.000000000000000000 ) ) ;
#21 = AXIS2_PLACEMENT_3D ( 'NONE', #70, #157, #283 ) ;
#22 = APPLICATION_CONTEXT ( 'configuration controlled 3d designs of mechanical parts and assemblies' ) ;
#23 = CARTESIAN_POINT ( 'NONE',  ( 1.316288464743861212E-13, 1.499999999999998668, 37.69999999999999574 ) ) ;
#24 = ADVANCED_FACE ( 'NONE', ( #12, #72 ), #209, .T. ) ;
#25 = CARTESIAN_POINT ( 'NONE',  ( -4.731839565957904486E-32, 0.1807649730810375888, -1.355252715606880851E-17 ) ) ;
#26 = EDGE_LOOP ( 'NONE', ( #154 ) ) ;
#27 = PERSON_AND_ORGANIZATION ( #50, #66 ) ;
#28 = PERSON_AND_ORGANIZATION ( #50, #66 ) ;
#29 = EDGE_CURVE ( 'NONE', #42, #42, #280, .T. ) ;
#30 = EDGE_LOOP ( 'NONE', ( #200 ) ) ;
#31 = CIRCLE ( 'NONE', #187, 0.1807649730810375888 ) ;
#32 = CALENDAR_DATE ( 2021, 26, 11 ) ;
#33 = COORDINATED_UNIVERSAL_TIME_OFFSET ( 1, 0, .AHEAD. ) ;
#34 = DIRECTION ( 'NONE',  ( 0.0000000000000000000, -1.000000000000000000, 0.0000000000000000000 ) ) ;
#35 = CYLINDRICAL_SURFACE ( 'NONE', #152, 0.2384999999999996290 ) ;
#36 = FACE_OUTER_BOUND ( 'NONE', #30, .T. ) ;
#37 = EDGE_CURVE ( 'NONE', #281, #281, #264, .T. ) ;
#38 = DIRECTION ( 'NONE',  ( -3.491481338843133355E-15, 1.224646799147352961E-16, -1.000000000000000000 ) ) ;
#39 = DIRECTION ( 'NONE',  ( -3.491481338843133355E-15, 1.224646799147352961E-16, -1.000000000000000000 ) ) ;
#40 = VERTEX_POINT ( 'NONE', #23 ) ;
#41 = EDGE_LOOP ( 'NONE', ( #267 ) ) ;
#42 = VERTEX_POINT ( 'NONE', #62 ) ;
#43 = EDGE_LOOP ( 'NONE', ( #82 ) ) ;
#44 = ADVANCED_FACE ( 'NONE', ( #252, #115 ), #143, .T. ) ;
#45 = COORDINATED_UNIVERSAL_TIME_OFFSET ( 1, 0, .AHEAD. ) ;
#46 = CC_DESIGN_PERSON_AND_ORGANIZATION_ASSIGNMENT ( #155, #199, ( #16 ) ) ;
#47 = CC_DESIGN_APPROVAL ( #196, ( #16 ) ) ;
#48 = COORDINATED_UNIVERSAL_TIME_OFFSET ( 1, 0, .AHEAD. ) ;
#49 = APPLICATION_PROTOCOL_DEFINITION ( 'international standard', 'config_control_design', 1994, #165 ) ;
#50 = PERSON ( 'UNSPECIFIED', 'UNSPECIFIED', 'UNSPECIFIED', ('UNSPECIFIED'), ('UNSPECIFIED'), ('UNSPECIFIED') ) ;
#51 = EDGE_LOOP ( 'NONE', ( #268 ) ) ;
#52 = CONICAL_SURFACE ( 'NONE', #123, 0.2384999999999993792, 0.5235987755982927094 ) ;
#53 = DESIGN_CONTEXT ( 'detailed design', #22, 'design' ) ;
#54 = DIRECTION ( 'NONE',  ( 3.491481338843133355E-15, -1.224646799147352961E-16, 1.000000000000000000 ) ) ;
#55 = CARTESIAN_POINT ( 'NONE',  ( 1.326762908760390423E-13, -4.653657836759941152E-15, 38.00000000000000000 ) ) ;
#56 = DIRECTION ( 'NONE',  ( 0.0000000000000000000, 1.000000000000000000, 0.0000000000000000000 ) ) ;
#57 = AXIS2_PLACEMENT_3D ( 'NONE', #138, #13, #208 ) ;
#58 = DIRECTION ( 'NONE',  ( -4.037588981943901376E-31, -1.000000000000000000, -1.136480264659860909E-16 ) ) ;
#59 = AXIS2_PLACEMENT_3D ( 'NONE', #231, #39, #104 ) ;
#60 = DIRECTION ( 'NONE',  ( 4.275831445896957731E-31, 1.000000000000000000, 1.224646799147352961E-16 ) ) ;
#61 = ORIENTED_EDGE ( 'NONE', *, *, #71, .T. ) ;
#62 = CARTESIAN_POINT ( 'NONE',  ( 3.491481338843133848E-16, 0.2384999999999993792, 0.1000000000000000056 ) ) ;
#63 = CARTESIAN_POINT ( 'NONE',  ( 4.304751857534915268E-14, -1.509903697552200964E-15, 12.32929934249985493 ) ) ;
#64 =( LENGTH_UNIT ( ) NAMED_UNIT ( * ) SI_UNIT ( .MILLI., .METRE. ) );
#65 = COORDINATED_UNIVERSAL_TIME_OFFSET ( 1, 0, .AHEAD. ) ;
#66 = ORGANIZATION ( 'UNSPECIFIED', 'UNSPECIFIED', '' ) ;
#67 = AXIS2_PLACEMENT_3D ( 'NONE', #241, #69, #137 ) ;
#68 = ORIENTED_EDGE ( 'NONE', *, *, #270, .F. ) ;
#69 = DIRECTION ( 'NONE',  ( 0.0000000000000000000, 0.0000000000000000000, 1.000000000000000000 ) ) ;
#70 = CARTESIAN_POINT ( 'NONE',  ( 1.745740669421566678E-14, -4.336808689942017736E-16, 5.000000000000000000 ) ) ;
#71 = EDGE_CURVE ( 'NONE', #255, #255, #198, .T. ) ;
#72 = FACE_BOUND ( 'NONE', #51, .T. ) ;
#73 = FACE_OUTER_BOUND ( 'NONE', #90, .T. ) ;
#74 = AXIS2_PLACEMENT_3D ( 'NONE', #99, #1, #145 ) ;
#75 = DIRECTION ( 'NONE',  ( -3.491481338843133355E-15, 1.224646799147352961E-16, -1.000000000000000000 ) ) ;
#76 = CARTESIAN_POINT ( 'NONE',  ( 1.866998543791202749E-14, 0.2688844939755794528, 5.347296355333846840 ) ) ;
#77 = FACE_OUTER_BOUND ( 'NONE', #132, .T. ) ;
#78 = CONICAL_SURFACE ( 'NONE', #14, 1.499999999999996891, 0.1745329251994262032 ) ;
#79 = CLOSED_SHELL ( 'NONE', ( #222, #242, #7, #275 ) ) ;
#80 = FACE_OUTER_BOUND ( 'NONE', #197, .T. ) ;
#81 = APPROVAL_PERSON_ORGANIZATION ( #27, #108, #3 ) ;
#82 = ORIENTED_EDGE ( 'NONE', *, *, #180, .T. ) ;
#83 = EDGE_LOOP ( 'NONE', ( #151 ) ) ;
#84 = CARTESIAN_POINT ( 'NONE',  ( 1.316288464743861212E-13, -4.616918432785520292E-15, 37.69999999999999574 ) ) ;
#85 = AXIS2_PLACEMENT_3D ( 'NONE', #162, #182, #223 ) ;
#86 = DATE_AND_TIME ( #32, #142 ) ;
#87 = PERSON_AND_ORGANIZATION_ROLE ( 'design_supplier' ) ;
#88 = AXIS2_PLACEMENT_3D ( 'NONE', #277, #75, #249 ) ;
#89 = EDGE_CURVE ( 'NONE', #260, #260, #227, .T. ) ;
#90 = EDGE_LOOP ( 'NONE', ( #257 ) ) ;
#91 = DATE_TIME_ROLE ( 'classification_date' ) ;
#92 = DATE_TIME_ROLE ( 'creation_date' ) ;
#93 = PLANE ( 'NONE',  #219 ) ;
#94 = AXIS2_PLACEMENT_3D ( 'NONE', #188, #100, #56 ) ;
#95 = CARTESIAN_POINT ( 'NONE',  ( 0.0000000000000000000, 0.0000000000000000000, 0.0000000000000000000 ) ) ;
#96 = CARTESIAN_POINT ( 'NONE',  ( 0.0000000000000000000, 0.0000000000000000000, 0.0000000000000000000 ) ) ;
#97 = ADVANCED_BREP_SHAPE_REPRESENTATION ( '963057', ( #232, #139, #67 ), #206 ) ;
#98 = CIRCLE ( 'NONE', #59, 0.2384999999999998510 ) ;
#99 = CARTESIAN_POINT ( 'NONE',  ( -6.230522564062040734E-32, 2.185373133806329190E-33, -1.784492586211690915E-17 ) ) ;
#100 = DIRECTION ( 'NONE',  ( -3.491481338843133355E-15, 1.224646799147352961E-16, -1.000000000000000000 ) ) ;
#101 = AXIS2_PLACEMENT_3D ( 'NONE', #118, #160, #205 ) ;
#102 = ORIENTED_EDGE ( 'NONE', *, *, #256, .F. ) ;
#103 = ADVANCED_FACE ( 'NONE', ( #73 ), #93, .F. ) ;
#104 = DIRECTION ( 'NONE',  ( 0.0000000000000000000, 1.000000000000000000, 0.0000000000000000000 ) ) ;
#105 = ORIENTED_EDGE ( 'NONE', *, *, #29, .F. ) ;
#106 = APPLICATION_PROTOCOL_DEFINITION ( 'international standard', 'config_control_design', 1994, #22 ) ;
#107 = DIRECTION ( 'NONE',  ( 0.0000000000000000000, 1.000000000000000000, 0.0000000000000000000 ) ) ;
#108 = APPROVAL ( #261, 'UNSPECIFIED' ) ;
#109 = EDGE_LOOP ( 'NONE', ( #237 ) ) ;
#110 = CC_DESIGN_APPROVAL ( #111, ( #150 ) ) ;
#111 = APPROVAL ( #263, 'UNSPECIFIED' ) ;
#112 = COORDINATED_UNIVERSAL_TIME_OFFSET ( 1, 0, .AHEAD. ) ;
#113 =( NAMED_UNIT ( * ) SI_UNIT ( $, .STERADIAN. ) SOLID_ANGLE_UNIT ( ) );
#114 = DATE_AND_TIME ( #172, #234 ) ;
#115 = FACE_OUTER_BOUND ( 'NONE', #43, .T. ) ;
#116 = ADVANCED_FACE ( 'NONE', ( #228 ), #204, .F. ) ;
#117 = CLOSED_SHELL ( 'NONE', ( #116, #236, #122, #6, #44, #24, #103 ) ) ;
#118 = CARTESIAN_POINT ( 'NONE',  ( 1.745740669421566678E-14, -6.123233995736765296E-16, 5.000000000000000000 ) ) ;
#119 = CC_DESIGN_PERSON_AND_ORGANIZATION_ASSIGNMENT ( #195, #221, ( #150 ) ) ;
#120 = CARTESIAN_POINT ( 'NONE',  ( 1.326762908760390423E-13, -4.653657836759941152E-15, 38.00000000000000000 ) ) ;
#121 = VERTEX_POINT ( 'NONE', #210 ) ;
#122 = ADVANCED_FACE ( 'NONE', ( #179, #36 ), #140, .F. ) ;
#123 = AXIS2_PLACEMENT_3D ( 'NONE', #144, #20, #58 ) ;
#124 = PRODUCT_DEFINITION_SHAPE ( 'NONE', 'NONE',  #192 ) ;
#125 = CARTESIAN_POINT ( 'NONE',  ( 1.047444401652940007E-14, 1.788463540824257862E-33, 3.000000000000000000 ) ) ;
#126 = PRODUCT ( '963057', '963057', '', ( #158 ) ) ;
#127 = DIRECTION ( 'NONE',  ( -3.491481338843133355E-15, 1.224646799147352961E-16, -1.000000000000000000 ) ) ;
#128 = AXIS2_PLACEMENT_3D ( 'NONE', #55, #190, #253 ) ;
#129 = LOCAL_TIME ( 15, 47, 30.00000000000000000, #65 ) ;
#130 = EDGE_CURVE ( 'NONE', #147, #147, #248, .T. ) ;
#131 = AXIS2_PLACEMENT_3D ( 'NONE', #125, #185, #258 ) ;
#132 = EDGE_LOOP ( 'NONE', ( #217 ) ) ;
#133 = APPROVAL_DATE_TIME ( #247, #108 ) ;
#134 = APPROVAL_ROLE ( '' ) ;
#135 = AXIS2_PLACEMENT_3D ( 'NONE', #120, #15, #269 ) ;
#136 = EDGE_LOOP ( 'NONE', ( #171 ) ) ;
#137 = DIRECTION ( 'NONE',  ( 1.000000000000000000, 0.0000000000000000000, 0.0000000000000000000 ) ) ;
#138 = CARTESIAN_POINT ( 'NONE',  ( 3.491481338843132862E-16, -1.224646799147352653E-17, 0.09999999999999997780 ) ) ;
#139 = MANIFOLD_SOLID_BREP ( 'Corps-Déplacer/Copier1[2]', #79 ) ;
#140 = TOROIDAL_SURFACE ( 'NONE', #21, 2.238500000000000156, 2.000000000000000888 ) ;
#141 = DIRECTION ( 'NONE',  ( 4.275831445896957731E-31, 1.000000000000000000, 1.224646799147352961E-16 ) ) ;
#142 = LOCAL_TIME ( 15, 47, 30.00000000000000000, #48 ) ;
#143 = CYLINDRICAL_SURFACE ( 'NONE', #239, 1.500000000000000000 ) ;
#144 = CARTESIAN_POINT ( 'NONE',  ( 3.491481338843132862E-16, -1.224646799147352653E-17, 0.09999999999999997780 ) ) ;
#145 = DIRECTION ( 'NONE',  ( -4.275831445896957731E-31, -1.000000000000000000, -1.224646799147352961E-16 ) ) ;
#146 = CARTESIAN_POINT ( 'NONE',  ( -1.246104512812408147E-31, 4.370746267612658381E-33, -3.568985172423381830E-17 ) ) ;
#147 = VERTEX_POINT ( 'NONE', #235 ) ;
#148 = EDGE_LOOP ( 'NONE', ( #240 ) ) ;
#149 = VERTEX_POINT ( 'NONE', #25 ) ;
#150 = SECURITY_CLASSIFICATION ( '', '', #203 ) ;
#151 = ORIENTED_EDGE ( 'NONE', *, *, #262, .T. ) ;
#152 = AXIS2_PLACEMENT_3D ( 'NONE', #96, #207, #273 ) ;
#153 = PERSON_AND_ORGANIZATION ( #50, #66 ) ;
#154 = ORIENTED_EDGE ( 'NONE', *, *, #71, .F. ) ;
#155 = PERSON_AND_ORGANIZATION ( #50, #66 ) ;
#156 = EDGE_LOOP ( 'NONE', ( #105 ) ) ;
#157 = DIRECTION ( 'NONE',  ( -3.491481338843133355E-15, 1.224646799147352961E-16, -1.000000000000000000 ) ) ;
#158 = MECHANICAL_CONTEXT ( 'NONE', #165, 'mechanical' ) ;
#159 = UNCERTAINTY_MEASURE_WITH_UNIT (LENGTH_MEASURE( 1.000000000000000082E-05 ), #64, 'distance_accuracy_value', 'NONE');
#160 = DIRECTION ( 'NONE',  ( -3.491481338843133355E-15, 1.224646799147352961E-16, -1.000000000000000000 ) ) ;
#161 = AXIS2_PLACEMENT_3D ( 'NONE', #84, #38, #107 ) ;
#162 = CARTESIAN_POINT ( 'NONE',  ( 1.047444401652940007E-14, -3.673940397442059375E-16, 3.000000000000000000 ) ) ;
#163 = DIRECTION ( 'NONE',  ( -3.491481338843133355E-15, 1.224646799147352961E-16, -1.000000000000000000 ) ) ;
#164 = FACE_BOUND ( 'NONE', #191, .T. ) ;
#165 = APPLICATION_CONTEXT ( 'configuration controlled 3d designs of mechanical parts and assemblies' ) ;
#166 = FACE_OUTER_BOUND ( 'NONE', #148, .T. ) ;
#167 = ORIENTED_EDGE ( 'NONE', *, *, #262, .F. ) ;
#168 = PLANE ( 'NONE',  #74 ) ;
#169 = FACE_BOUND ( 'NONE', #282, .T. ) ;
#170 = PLANE ( 'NONE',  #131 ) ;
#171 = ORIENTED_EDGE ( 'NONE', *, *, #89, .F. ) ;
#172 = CALENDAR_DATE ( 2021, 26, 11 ) ;
#173 = CALENDAR_DATE ( 2021, 26, 11 ) ;
#174 = EDGE_LOOP ( 'NONE', ( #61 ) ) ;
#175 = APPROVAL_DATE_TIME ( #86, #196 ) ;
#176 = DIRECTION ( 'NONE',  ( -4.275831445896957731E-31, -1.000000000000000000, -1.224646799147352961E-16 ) ) ;
#177 = CC_DESIGN_PERSON_AND_ORGANIZATION_ASSIGNMENT ( #224, #194, ( #192 ) ) ;
#178 = APPROVAL_ROLE ( '' ) ;
#179 = FACE_OUTER_BOUND ( 'NONE', #136, .T. ) ;
#180 = EDGE_CURVE ( 'NONE', #40, #40, #9, .T. ) ;
#181 = DIRECTION ( 'NONE',  ( -3.491481338843133355E-15, 1.224646799147352961E-16, -1.000000000000000000 ) ) ;
#182 = DIRECTION ( 'NONE',  ( -3.491481338843133355E-15, 1.224646799147352961E-16, -1.000000000000000000 ) ) ;
#183 = CARTESIAN_POINT ( 'NONE',  ( 1.745740669421566678E-14, 0.2384999999999995735, 5.000000000000000000 ) ) ;
#184 = CYLINDRICAL_SURFACE ( 'NONE', #276, 0.2385000000000000175 ) ;
#185 = DIRECTION ( 'NONE',  ( 3.491481338843133355E-15, -1.224646799147352961E-16, 1.000000000000000000 ) ) ;
#186 = ORIENTED_EDGE ( 'NONE', *, *, #180, .F. ) ;
#187 = AXIS2_PLACEMENT_3D ( 'NONE', #146, #214, #60 ) ;
#188 = CARTESIAN_POINT ( 'NONE',  ( 1.866998543791202749E-14, -6.548549365651902423E-16, 5.347296355333846840 ) ) ;
#189 = ORIENTED_EDGE ( 'NONE', *, *, #256, .T. ) ;
#190 = DIRECTION ( 'NONE',  ( -3.491481338843133355E-15, 1.224646799147352961E-16, -1.000000000000000000 ) ) ;
#191 = EDGE_LOOP ( 'NONE', ( #102 ) ) ;
#192 = PRODUCT_DEFINITION ( 'UNKNOWN', '', #16, #53 ) ;
#193 =( NAMED_UNIT ( * ) PLANE_ANGLE_UNIT ( ) SI_UNIT ( $, .RADIAN. ) );
#194 = PERSON_AND_ORGANIZATION_ROLE ( 'creator' ) ;
#195 = PERSON_AND_ORGANIZATION ( #50, #66 ) ;
#196 = APPROVAL ( #246, 'UNSPECIFIED' ) ;
#197 = EDGE_LOOP ( 'NONE', ( #189 ) ) ;
#198 = CIRCLE ( 'NONE', #88, 1.499999999999996891 ) ;
#199 = PERSON_AND_ORGANIZATION_ROLE ( 'creator' ) ;
#200 = ORIENTED_EDGE ( 'NONE', *, *, #270, .T. ) ;
#201 = SHAPE_DEFINITION_REPRESENTATION ( #124, #97 ) ;
#202 = CC_DESIGN_DATE_AND_TIME_ASSIGNMENT ( #114, #91, ( #150 ) ) ;
#203 = SECURITY_CLASSIFICATION_LEVEL ( 'unclassified' ) ;
#204 = PLANE ( 'NONE',  #254 ) ;
#205 = DIRECTION ( 'NONE',  ( 0.0000000000000000000, 1.000000000000000000, 0.0000000000000000000 ) ) ;
#206 =( GEOMETRIC_REPRESENTATION_CONTEXT ( 3 ) GLOBAL_UNCERTAINTY_ASSIGNED_CONTEXT ( ( #159 ) ) GLOBAL_UNIT_ASSIGNED_CONTEXT ( ( #64, #193, #113 ) ) REPRESENTATION_CONTEXT ( 'NONE', 'WORKASPACE' ) );
#207 = DIRECTION ( 'NONE',  ( -3.491481338843133355E-15, 1.224646799147352961E-16, -1.000000000000000000 ) ) ;
#208 = DIRECTION ( 'NONE',  ( 4.037588981943901376E-31, 1.000000000000000000, 1.136480264659860909E-16 ) ) ;
#209 = CONICAL_SURFACE ( 'NONE', #135, 1.200000000000003286, 0.7853981633974453924 ) ;
#210 = CARTESIAN_POINT ( 'NONE',  ( 1.047444401652940007E-14, 0.2384999999999994902, 3.000000000000000000 ) ) ;
#211 = PERSON_AND_ORGANIZATION ( #50, #66 ) ;
#212 = DIRECTION ( 'NONE',  ( 4.275831445896956855E-31, 1.000000000000000000, 1.224646799147352961E-16 ) ) ;
#213 = CC_DESIGN_PERSON_AND_ORGANIZATION_ASSIGNMENT ( #4, #87, ( #16 ) ) ;
#214 = DIRECTION ( 'NONE',  ( -3.491481338843133355E-15, 1.224646799147352961E-16, -1.000000000000000000 ) ) ;
#215 = FACE_OUTER_BOUND ( 'NONE', #10, .T. ) ;
#216 = CARTESIAN_POINT ( 'NONE',  ( 1.047444401652940007E-14, 0.2384999999999994902, 3.000000000000000000 ) ) ;
#217 = ORIENTED_EDGE ( 'NONE', *, *, #37, .F. ) ;
#218 = CC_DESIGN_PERSON_AND_ORGANIZATION_ASSIGNMENT ( #211, #19, ( #126 ) ) ;
#219 = AXIS2_PLACEMENT_3D ( 'NONE', #230, #181, #141 ) ;
#220 = APPROVAL_DATE_TIME ( #245, #111 ) ;
#221 = PERSON_AND_ORGANIZATION_ROLE ( 'classification_officer' ) ;
#222 = ADVANCED_FACE ( 'NONE', ( #80 ), #168, .F. ) ;
#223 = DIRECTION ( 'NONE',  ( 0.0000000000000000000, 1.000000000000000000, 0.0000000000000000000 ) ) ;
#224 = PERSON_AND_ORGANIZATION ( #50, #66 ) ;
#225 = FACE_OUTER_BOUND ( 'NONE', #83, .T. ) ;
#226 = CALENDAR_DATE ( 2021, 26, 11 ) ;
#227 = CIRCLE ( 'NONE', #101, 0.2385000000000001841 ) ;
#228 = FACE_OUTER_BOUND ( 'NONE', #109, .T. ) ;
#229 = LOCAL_TIME ( 15, 47, 30.00000000000000000, #45 ) ;
#230 = CARTESIAN_POINT ( 'NONE',  ( 1.326762908760390423E-13, 8.998558695971099120E-33, 38.00000000000000000 ) ) ;
#231 = CARTESIAN_POINT ( 'NONE',  ( 1.047444401652940007E-14, -3.673940397442059375E-16, 3.000000000000000000 ) ) ;
#232 = MANIFOLD_SOLID_BREP ( 'Corps-Déplacer/Copier1[1]', #117 ) ;
#233 = FACE_OUTER_BOUND ( 'NONE', #41, .T. ) ;
#234 = LOCAL_TIME ( 15, 47, 30.00000000000000000, #33 ) ;
#235 = CARTESIAN_POINT ( 'NONE',  ( 1.326762908760390423E-13, 1.199999999999998845, 38.00000000000000000 ) ) ;
#236 = ADVANCED_FACE ( 'NONE', ( #77, #233 ), #184, .T. ) ;
#237 = ORIENTED_EDGE ( 'NONE', *, *, #37, .T. ) ;
#238 = CARTESIAN_POINT ( 'NONE',  ( 0.0000000000000000000, 0.0000000000000000000, 0.0000000000000000000 ) ) ;
#239 = AXIS2_PLACEMENT_3D ( 'NONE', #95, #163, #17 ) ;
#240 = ORIENTED_EDGE ( 'NONE', *, *, #29, .T. ) ;
#241 = CARTESIAN_POINT ( 'NONE',  ( 0.0000000000000000000, 0.0000000000000000000, 0.0000000000000000000 ) ) ;
#242 = ADVANCED_FACE ( 'NONE', ( #164, #166 ), #52, .T. ) ;
#243 = PRODUCT_RELATED_PRODUCT_CATEGORY ( 'detail', '', ( #126 ) ) ;
#244 = CALENDAR_DATE ( 2021, 26, 11 ) ;
#245 = DATE_AND_TIME ( #244, #129 ) ;
#246 = APPROVAL_STATUS ( 'not_yet_approved' ) ;
#247 = DATE_AND_TIME ( #226, #229 ) ;
#248 = CIRCLE ( 'NONE', #128, 1.200000000000003286 ) ;
#249 = DIRECTION ( 'NONE',  ( 0.0000000000000000000, 1.000000000000000000, 0.0000000000000000000 ) ) ;
#250 = CIRCLE ( 'NONE', #94, 0.2688844939755801189 ) ;
#251 = APPROVAL_PERSON_ORGANIZATION ( #28, #111, #178 ) ;
#252 = FACE_OUTER_BOUND ( 'NONE', #26, .T. ) ;
#253 = DIRECTION ( 'NONE',  ( 0.0000000000000000000, 1.000000000000000000, 0.0000000000000000000 ) ) ;
#254 = AXIS2_PLACEMENT_3D ( 'NONE', #274, #54, #176 ) ;
#255 = VERTEX_POINT ( 'NONE', #18 ) ;
#256 = EDGE_CURVE ( 'NONE', #149, #149, #31, .T. ) ;
#257 = ORIENTED_EDGE ( 'NONE', *, *, #130, .F. ) ;
#258 = DIRECTION ( 'NONE',  ( -4.275831445896957731E-31, -1.000000000000000000, -1.224646799147352961E-16 ) ) ;
#259 = FACE_OUTER_BOUND ( 'NONE', #174, .T. ) ;
#260 = VERTEX_POINT ( 'NONE', #183 ) ;
#261 = APPROVAL_STATUS ( 'not_yet_approved' ) ;
#262 = EDGE_CURVE ( 'NONE', #121, #121, #98, .T. ) ;
#263 = APPROVAL_STATUS ( 'not_yet_approved' ) ;
#264 = CIRCLE ( 'NONE', #85, 0.2384999999999998510 ) ;
#265 = CC_DESIGN_APPROVAL ( #108, ( #192 ) ) ;
#266 = LOCAL_TIME ( 15, 47, 30.00000000000000000, #112 ) ;
#267 = ORIENTED_EDGE ( 'NONE', *, *, #89, .T. ) ;
#268 = ORIENTED_EDGE ( 'NONE', *, *, #130, .T. ) ;
#269 = DIRECTION ( 'NONE',  ( 0.0000000000000000000, 1.000000000000000000, 0.0000000000000000000 ) ) ;
#270 = EDGE_CURVE ( 'NONE', #279, #279, #250, .T. ) ;
#271 = FACE_OUTER_BOUND ( 'NONE', #156, .T. ) ;
#272 = CC_DESIGN_SECURITY_CLASSIFICATION ( #150, ( #16 ) ) ;
#273 = DIRECTION ( 'NONE',  ( 4.275831445896957731E-31, 1.000000000000000000, 1.224646799147352961E-16 ) ) ;
#274 = CARTESIAN_POINT ( 'NONE',  ( 1.047444401652940007E-14, 1.788463540824257862E-33, 3.000000000000000000 ) ) ;
#275 = ADVANCED_FACE ( 'NONE', ( #215 ), #170, .T. ) ;
#276 = AXIS2_PLACEMENT_3D ( 'NONE', #238, #127, #212 ) ;
#277 = CARTESIAN_POINT ( 'NONE',  ( 4.304751857534915268E-14, -1.509903697552200964E-15, 12.32929934249985493 ) ) ;
#278 = APPROVAL_PERSON_ORGANIZATION ( #153, #196, #134 ) ;
#279 = VERTEX_POINT ( 'NONE', #76 ) ;
#280 = CIRCLE ( 'NONE', #57, 0.2384999999999993792 ) ;
#281 = VERTEX_POINT ( 'NONE', #216 ) ;
#282 = EDGE_LOOP ( 'NONE', ( #68 ) ) ;
#283 = DIRECTION ( 'NONE',  ( 4.401136598206782478E-31, 1.000000000000000000, 1.224646799147352961E-16 ) ) ;
ENDSEC;
END-ISO-10303-21;
