ISO-10303-21;
HEADER;
FILE_DESCRIPTION (( 'STEP AP203' ),
    '1' );
FILE_NAME ('963006.step',
    '2021-11-30T08:32:50',
    ( '' ),
    ( '' ),
    'SwSTEP 2.0',
    'SolidWorks 2019',
    '' );
FILE_SCHEMA (( 'CONFIG_CONTROL_DESIGN' ));
ENDSEC;

DATA;
#1 = DIRECTION ( 'NONE',  ( 0.0000000000000000000, 1.000000000000000000, 0.0000000000000000000 ) ) ;
#2 = PRODUCT_RELATED_PRODUCT_CATEGORY ( 'detail', '', ( #125 ) ) ;
#3 = VERTEX_POINT ( 'NONE', #95 ) ;
#4 = ORIENTED_EDGE ( 'NONE', *, *, #180, .F. ) ;
#5 = ADVANCED_FACE ( 'NONE', ( #56, #132 ), #78, .T. ) ;
#6 = PERSON_AND_ORGANIZATION ( #96, #249 ) ;
#7 = DIRECTION ( 'NONE',  ( 0.0000000000000000000, 1.000000000000000000, 0.0000000000000000000 ) ) ;
#8 = CARTESIAN_POINT ( 'NONE',  ( 2.444036937190193349E-14, -8.572527594031473190E-16, 7.000000000000000000 ) ) ;
#9 = APPLICATION_PROTOCOL_DEFINITION ( 'international standard', 'config_control_design', 1994, #113 ) ;
#10 = FACE_OUTER_BOUND ( 'NONE', #97, .T. ) ;
#11 = CC_DESIGN_PERSON_AND_ORGANIZATION_ASSIGNMENT ( #6, #225, ( #20 ) ) ;
#12 = PERSON_AND_ORGANIZATION_ROLE ( 'design_owner' ) ;
#13 = CYLINDRICAL_SURFACE ( 'NONE', #66, 1.499999999999998890 ) ;
#14 = ADVANCED_FACE ( 'NONE', ( #101, #25 ), #60, .T. ) ;
#15 = ADVANCED_BREP_SHAPE_REPRESENTATION ( '963006', ( #246, #40, #106 ), #77 ) ;
#16 = CONICAL_SURFACE ( 'NONE', #44, 1.499999999999996447, 0.1745329251994258979 ) ;
#17 = AXIS2_PLACEMENT_3D ( 'NONE', #295, #235, #301 ) ;
#18 = LOCAL_TIME ( 9, 32, 50.00000000000000000, #52 ) ;
#19 = CALENDAR_DATE ( 2021, 30, 11 ) ;
#20 = PRODUCT_DEFINITION ( 'UNKNOWN', '', #198, #159 ) ;
#21 = AXIS2_PLACEMENT_3D ( 'NONE', #277, #233, #210 ) ;
#22 = VERTEX_POINT ( 'NONE', #146 ) ;
#23 = EDGE_CURVE ( 'NONE', #136, #136, #299, .T. ) ;
#24 = VERTEX_POINT ( 'NONE', #280 ) ;
#25 = FACE_BOUND ( 'NONE', #127, .T. ) ;
#26 = CARTESIAN_POINT ( 'NONE',  ( 0.0000000000000000000, 0.0000000000000000000, 0.0000000000000000000 ) ) ;
#27 = CARTESIAN_POINT ( 'NONE',  ( 8.728703347107829444E-16, -3.061616997868381785E-17, 0.2499999999999998890 ) ) ;
#28 = APPROVAL_ROLE ( '' ) ;
#29 = EDGE_LOOP ( 'NONE', ( #263 ) ) ;
#30 = AXIS2_PLACEMENT_3D ( 'NONE', #73, #200, #179 ) ;
#31 = APPROVAL_PERSON_ORGANIZATION ( #211, #54, #166 ) ;
#32 = EDGE_LOOP ( 'NONE', ( #243 ) ) ;
#33 = DIRECTION ( 'NONE',  ( -3.491481338843133355E-15, 1.224646799147353207E-16, -1.000000000000000000 ) ) ;
#34 = DIRECTION ( 'NONE',  ( -3.491481338843133355E-15, 1.224646799147353207E-16, -1.000000000000000000 ) ) ;
#35 = PERSON_AND_ORGANIZATION ( #96, #249 ) ;
#36 = ORIENTED_EDGE ( 'NONE', *, *, #180, .T. ) ;
#37 = DIRECTION ( 'NONE',  ( 4.275831445896958607E-31, 1.000000000000000000, 1.224646799147353454E-16 ) ) ;
#38 = TOROIDAL_SURFACE ( 'NONE', #284, 2.685000000000000053, 2.000000000000000000 ) ;
#39 = CALENDAR_DATE ( 2021, 30, 11 ) ;
#40 = MANIFOLD_SOLID_BREP ( 'Corps-Déplacer/Copier1[2]', #239 ) ;
#41 = CIRCLE ( 'NONE', #222, 1.200000000000001732 ) ;
#42 = LOCAL_TIME ( 9, 32, 50.00000000000000000, #115 ) ;
#43 = DATE_TIME_ROLE ( 'classification_date' ) ;
#44 = AXIS2_PLACEMENT_3D ( 'NONE', #107, #223, #178 ) ;
#45 = COORDINATED_UNIVERSAL_TIME_OFFSET ( 1, 0, .AHEAD. ) ;
#46 = CC_DESIGN_PERSON_AND_ORGANIZATION_ASSIGNMENT ( #188, #237, ( #198 ) ) ;
#47 = DIRECTION ( 'NONE',  ( -3.491481338843133355E-15, 1.224646799147353207E-16, -1.000000000000000000 ) ) ;
#48 = AXIS2_PLACEMENT_3D ( 'NONE', #8, #289, #226 ) ;
#49 = ORIENTED_EDGE ( 'NONE', *, *, #89, .T. ) ;
#50 = CARTESIAN_POINT ( 'NONE',  ( 2.506627765991136237E-14, -8.792066668447528551E-16, 7.179267258583378108 ) ) ;
#51 = ORIENTED_EDGE ( 'NONE', *, *, #213, .T. ) ;
#52 = COORDINATED_UNIVERSAL_TIME_OFFSET ( 1, 0, .AHEAD. ) ;
#53 = CLOSED_SHELL ( 'NONE', ( #285, #203, #5, #131, #79, #58, #14, #160 ) ) ;
#54 = APPROVAL ( #90, 'UNSPECIFIED' ) ;
#55 = APPROVAL_DATE_TIME ( #75, #94 ) ;
#56 = FACE_OUTER_BOUND ( 'NONE', #283, .T. ) ;
#57 = DIRECTION ( 'NONE',  ( -3.491481338843133355E-15, 1.224646799147353207E-16, -1.000000000000000000 ) ) ;
#58 = ADVANCED_FACE ( 'NONE', ( #98, #103 ), #13, .T. ) ;
#59 = DIRECTION ( 'NONE',  ( -4.885047417596038583E-31, -1.000000000000000000, -1.375018608098295195E-16 ) ) ;
#60 = CONICAL_SURFACE ( 'NONE', #108, 1.200000000000001732, 0.7853981633974453924 ) ;
#61 = APPROVAL_PERSON_ORGANIZATION ( #138, #74, #62 ) ;
#62 = APPROVAL_ROLE ( '' ) ;
#63 = AXIS2_PLACEMENT_3D ( 'NONE', #278, #236, #120 ) ;
#64 = SECURITY_CLASSIFICATION ( '', '', #102 ) ;
#65 = DIRECTION ( 'NONE',  ( 0.0000000000000000000, 1.000000000000000000, 0.0000000000000000000 ) ) ;
#66 = AXIS2_PLACEMENT_3D ( 'NONE', #272, #267, #270 ) ;
#67 = FACE_OUTER_BOUND ( 'NONE', #206, .T. ) ;
#68 = SHAPE_DEFINITION_REPRESENTATION ( #242, #15 ) ;
#69 = CARTESIAN_POINT ( 'NONE',  ( 1.745740669421566678E-13, 1.199999999999995515, 50.00000000000000000 ) ) ;
#70 = DIRECTION ( 'NONE',  ( 0.0000000000000000000, 1.000000000000000000, 0.0000000000000000000 ) ) ;
#71 = CC_DESIGN_PERSON_AND_ORGANIZATION_ASSIGNMENT ( #35, #12, ( #125 ) ) ;
#72 = ORIENTED_EDGE ( 'NONE', *, *, #296, .F. ) ;
#73 = CARTESIAN_POINT ( 'NONE',  ( 5.237222008264700033E-14, -1.836970198721029589E-15, 15.00000000000000000 ) ) ;
#74 = APPROVAL ( #111, 'UNSPECIFIED' ) ;
#75 = DATE_AND_TIME ( #39, #18 ) ;
#76 = CIRCLE ( 'NONE', #250, 0.6849999999999993872 ) ;
#77 =( GEOMETRIC_REPRESENTATION_CONTEXT ( 3 ) GLOBAL_UNCERTAINTY_ASSIGNED_CONTEXT ( ( #181 ) ) GLOBAL_UNIT_ASSIGNED_CONTEXT ( ( #193, #191, #145 ) ) REPRESENTATION_CONTEXT ( 'NONE', 'WORKASPACE' ) );
#78 = CYLINDRICAL_SURFACE ( 'NONE', #137, 0.6849999999999996092 ) ;
#79 = ADVANCED_FACE ( 'NONE', ( #129, #10 ), #16, .T. ) ;
#80 = CARTESIAN_POINT ( 'NONE',  ( 0.0000000000000000000, 0.0000000000000000000, 0.0000000000000000000 ) ) ;
#81 = DIRECTION ( 'NONE',  ( 1.000000000000000000, 0.0000000000000000000, 0.0000000000000000000 ) ) ;
#82 = PERSON_AND_ORGANIZATION_ROLE ( 'classification_officer' ) ;
#83 = ORIENTED_EDGE ( 'NONE', *, *, #189, .F. ) ;
#84 = MECHANICAL_CONTEXT ( 'NONE', #126, 'mechanical' ) ;
#85 = ORIENTED_EDGE ( 'NONE', *, *, #149, .F. ) ;
#86 = CARTESIAN_POINT ( 'NONE',  ( 0.0000000000000000000, 0.0000000000000000000, 0.0000000000000000000 ) ) ;
#87 = DIRECTION ( 'NONE',  ( -3.491481338843133355E-15, 1.224646799147353207E-16, -1.000000000000000000 ) ) ;
#88 = DIRECTION ( 'NONE',  ( 0.0000000000000000000, 1.000000000000000000, 0.0000000000000000000 ) ) ;
#89 = EDGE_CURVE ( 'NONE', #143, #143, #176, .T. ) ;
#90 = APPROVAL_STATUS ( 'not_yet_approved' ) ;
#91 = VERTEX_POINT ( 'NONE', #121 ) ;
#92 = APPROVAL_DATE_TIME ( #279, #54 ) ;
#93 = DIRECTION ( 'NONE',  ( -3.491481338843133355E-15, 1.224646799147353207E-16, -1.000000000000000000 ) ) ;
#94 = APPROVAL ( #288, 'UNSPECIFIED' ) ;
#95 = CARTESIAN_POINT ( 'NONE',  ( 0.0000000000000000000, 0.6441624327025947672, 0.0000000000000000000 ) ) ;
#96 = PERSON ( 'UNSPECIFIED', 'UNSPECIFIED', 'UNSPECIFIED', ('UNSPECIFIED'), ('UNSPECIFIED'), ('UNSPECIFIED') ) ;
#97 = EDGE_LOOP ( 'NONE', ( #205 ) ) ;
#98 = FACE_OUTER_BOUND ( 'NONE', #152, .T. ) ;
#99 = FACE_OUTER_BOUND ( 'NONE', #182, .T. ) ;
#100 = ADVANCED_FACE ( 'NONE', ( #153, #248 ), #204, .T. ) ;
#101 = FACE_OUTER_BOUND ( 'NONE', #186, .T. ) ;
#102 = SECURITY_CLASSIFICATION_LEVEL ( 'unclassified' ) ;
#103 = FACE_OUTER_BOUND ( 'NONE', #293, .T. ) ;
#104 = AXIS2_PLACEMENT_3D ( 'NONE', #228, #133, #59 ) ;
#105 = CIRCLE ( 'NONE', #275, 1.500000000000001554 ) ;
#106 = AXIS2_PLACEMENT_3D ( 'NONE', #86, #231, #81 ) ;
#107 = CARTESIAN_POINT ( 'NONE',  ( 6.912110748678993013E-14, -2.424442086958568894E-15, 19.79707201004044137 ) ) ;
#108 = AXIS2_PLACEMENT_3D ( 'NONE', #286, #57, #7 ) ;
#109 = CC_DESIGN_DATE_AND_TIME_ASSIGNMENT ( #140, #43, ( #64 ) ) ;
#110 = ORIENTED_EDGE ( 'NONE', *, *, #149, .T. ) ;
#111 = APPROVAL_STATUS ( 'not_yet_approved' ) ;
#112 = ADVANCED_FACE ( 'NONE', ( #251 ), #244, .T. ) ;
#113 = APPLICATION_CONTEXT ( 'configuration controlled 3d designs of mechanical parts and assemblies' ) ;
#114 = CIRCLE ( 'NONE', #63, 0.7884999999999998677 ) ;
#115 = COORDINATED_UNIVERSAL_TIME_OFFSET ( 1, 0, .AHEAD. ) ;
#116 = DIRECTION ( 'NONE',  ( -3.491481338843133355E-15, 1.224646799147353207E-16, -1.000000000000000000 ) ) ;
#117 = AXIS2_PLACEMENT_3D ( 'NONE', #258, #93, #255 ) ;
#118 = CC_DESIGN_APPROVAL ( #94, ( #20 ) ) ;
#119 = CC_DESIGN_APPROVAL ( #54, ( #64 ) ) ;
#120 = DIRECTION ( 'NONE',  ( 0.0000000000000000000, 1.000000000000000000, 0.0000000000000000000 ) ) ;
#121 = CARTESIAN_POINT ( 'NONE',  ( 2.444036937190193349E-14, 0.7884999999999990905, 7.000000000000000000 ) ) ;
#122 = CARTESIAN_POINT ( 'NONE',  ( 2.506627765991136237E-14, 0.6849999999999984990, 7.179267258583378108 ) ) ;
#123 = EDGE_LOOP ( 'NONE', ( #36 ) ) ;
#124 = DIRECTION ( 'NONE',  ( 3.491481338843133355E-15, -1.224646799147353207E-16, 1.000000000000000000 ) ) ;
#125 = PRODUCT ( '963006', '963006', '', ( #84 ) ) ;
#126 = APPLICATION_CONTEXT ( 'configuration controlled 3d designs of mechanical parts and assemblies' ) ;
#127 = EDGE_LOOP ( 'NONE', ( #202 ) ) ;
#128 = CC_DESIGN_APPROVAL ( #74, ( #198 ) ) ;
#129 = FACE_BOUND ( 'NONE', #297, .T. ) ;
#130 = CARTESIAN_POINT ( 'NONE',  ( 2.444036937190193349E-14, 5.912802943144360810E-33, 7.000000000000000000 ) ) ;
#131 = ADVANCED_FACE ( 'NONE', ( #264, #99 ), #38, .F. ) ;
#132 = FACE_OUTER_BOUND ( 'NONE', #265, .T. ) ;
#133 = DIRECTION ( 'NONE',  ( 3.491481338843133355E-15, -1.224646799147353207E-16, 1.000000000000000000 ) ) ;
#134 = AXIS2_PLACEMENT_3D ( 'NONE', #130, #124, #224 ) ;
#135 = CC_DESIGN_PERSON_AND_ORGANIZATION_ASSIGNMENT ( #175, #82, ( #64 ) ) ;
#136 = VERTEX_POINT ( 'NONE', #229 ) ;
#137 = AXIS2_PLACEMENT_3D ( 'NONE', #80, #199, #37 ) ;
#138 = PERSON_AND_ORGANIZATION ( #96, #249 ) ;
#139 = APPLICATION_PROTOCOL_DEFINITION ( 'international standard', 'config_control_design', 1994, #126 ) ;
#140 = DATE_AND_TIME ( #262, #256 ) ;
#141 = DIRECTION ( 'NONE',  ( -3.491481338843133355E-15, 1.224646799147353207E-16, -1.000000000000000000 ) ) ;
#142 = CIRCLE ( 'NONE', #117, 0.7153844939755813481 ) ;
#143 = VERTEX_POINT ( 'NONE', #261 ) ;
#144 = APPROVAL_DATE_TIME ( #158, #74 ) ;
#145 =( NAMED_UNIT ( * ) SI_UNIT ( $, .STERADIAN. ) SOLID_ANGLE_UNIT ( ) );
#146 = CARTESIAN_POINT ( 'NONE',  ( 8.728703347107833388E-16, 0.7884999999999990905, 0.2500000000000000000 ) ) ;
#147 = ORIENTED_EDGE ( 'NONE', *, *, #23, .T. ) ;
#148 = EDGE_LOOP ( 'NONE', ( #49 ) ) ;
#149 = EDGE_CURVE ( 'NONE', #241, #241, #76, .T. ) ;
#150 = LOCAL_TIME ( 9, 32, 50.00000000000000000, #303 ) ;
#151 = PLANE ( 'NONE',  #134 ) ;
#152 = EDGE_LOOP ( 'NONE', ( #72 ) ) ;
#153 = FACE_BOUND ( 'NONE', #29, .T. ) ;
#154 = PERSON_AND_ORGANIZATION_ROLE ( 'design_supplier' ) ;
#155 = CIRCLE ( 'NONE', #240, 0.7884999999999990905 ) ;
#156 = LOCAL_TIME ( 9, 32, 50.00000000000000000, #291 ) ;
#157 = EDGE_CURVE ( 'NONE', #259, #259, #142, .T. ) ;
#158 = DATE_AND_TIME ( #212, #42 ) ;
#159 = DESIGN_CONTEXT ( 'detailed design', #113, 'design' ) ;
#160 = ADVANCED_FACE ( 'NONE', ( #232 ), #238, .F. ) ;
#161 = ORIENTED_EDGE ( 'NONE', *, *, #213, .F. ) ;
#162 = DIRECTION ( 'NONE',  ( 4.275831445896958607E-31, 1.000000000000000000, 1.224646799147353207E-16 ) ) ;
#163 = CARTESIAN_POINT ( 'NONE',  ( 1.745740669421566678E-13, -6.123233995736766085E-15, 50.00000000000000000 ) ) ;
#164 = DATE_AND_TIME ( #19, #156 ) ;
#165 = EDGE_CURVE ( 'NONE', #3, #3, #290, .T. ) ;
#166 = APPROVAL_ROLE ( '' ) ;
#167 = CARTESIAN_POINT ( 'NONE',  ( 6.912110748678993013E-14, 1.499999999999994005, 19.79707201004044137 ) ) ;
#168 = ORIENTED_EDGE ( 'NONE', *, *, #23, .F. ) ;
#169 = DIRECTION ( 'NONE',  ( 4.885047417596038583E-31, 1.000000000000000000, 1.375018608098295195E-16 ) ) ;
#170 = DIRECTION ( 'NONE',  ( 4.275831445896957731E-31, 1.000000000000000000, 1.224646799147353207E-16 ) ) ;
#171 = CIRCLE ( 'NONE', #234, 1.499999999999996447 ) ;
#172 = EDGE_LOOP ( 'NONE', ( #287 ) ) ;
#173 = DIRECTION ( 'NONE',  ( 3.491481338843133355E-15, -1.224646799147353207E-16, 1.000000000000000000 ) ) ;
#174 = DIRECTION ( 'NONE',  ( -3.491481338843133355E-15, 1.224646799147353207E-16, -1.000000000000000000 ) ) ;
#175 = PERSON_AND_ORGANIZATION ( #96, #249 ) ;
#176 = CIRCLE ( 'NONE', #48, 0.7884999999999998677 ) ;
#177 = CARTESIAN_POINT ( 'NONE',  ( 5.237222008264700033E-14, -1.734723475976807094E-15, 15.00000000000000000 ) ) ;
#178 = DIRECTION ( 'NONE',  ( 0.0000000000000000000, -1.000000000000000000, 0.0000000000000000000 ) ) ;
#179 = DIRECTION ( 'NONE',  ( 0.0000000000000000000, 1.000000000000000000, 0.0000000000000000000 ) ) ;
#180 = EDGE_CURVE ( 'NONE', #91, #91, #114, .T. ) ;
#181 = UNCERTAINTY_MEASURE_WITH_UNIT (LENGTH_MEASURE( 1.000000000000000082E-05 ), #193, 'distance_accuracy_value', 'NONE');
#182 = EDGE_LOOP ( 'NONE', ( #254 ) ) ;
#183 = CARTESIAN_POINT ( 'NONE',  ( 1.745740669421566678E-13, 8.998558695971067645E-33, 50.00000000000000000 ) ) ;
#184 = AXIS2_PLACEMENT_3D ( 'NONE', #209, #116, #88 ) ;
#185 = FACE_OUTER_BOUND ( 'NONE', #148, .T. ) ;
#186 = EDGE_LOOP ( 'NONE', ( #161 ) ) ;
#187 = CC_DESIGN_SECURITY_CLASSIFICATION ( #64, ( #198 ) ) ;
#188 = PERSON_AND_ORGANIZATION ( #96, #249 ) ;
#189 = EDGE_CURVE ( 'NONE', #22, #22, #155, .T. ) ;
#190 = CALENDAR_DATE ( 2021, 30, 11 ) ;
#191 =( NAMED_UNIT ( * ) PLANE_ANGLE_UNIT ( ) SI_UNIT ( $, .RADIAN. ) );
#192 = PLANE ( 'NONE',  #17 ) ;
#193 =( LENGTH_UNIT ( ) NAMED_UNIT ( * ) SI_UNIT ( .MILLI., .METRE. ) );
#194 = EDGE_LOOP ( 'NONE', ( #260 ) ) ;
#195 = DIRECTION ( 'NONE',  ( -3.491481338843133355E-15, 1.224646799147353207E-16, -1.000000000000000000 ) ) ;
#196 = EDGE_LOOP ( 'NONE', ( #110 ) ) ;
#197 = CONICAL_SURFACE ( 'NONE', #184, 0.7884999999999998677, 0.5235987755983027014 ) ;
#198 = PRODUCT_DEFINITION_FORMATION_WITH_SPECIFIED_SOURCE ( 'ANY', '', #125, .NOT_KNOWN. ) ;
#199 = DIRECTION ( 'NONE',  ( -3.491481338843133355E-15, 1.224646799147353207E-16, -1.000000000000000000 ) ) ;
#200 = DIRECTION ( 'NONE',  ( -3.491481338843133355E-15, 1.224646799147353207E-16, -1.000000000000000000 ) ) ;
#201 = DIRECTION ( 'NONE',  ( 4.275831445896958607E-31, 1.000000000000000000, 1.224646799147353207E-16 ) ) ;
#202 = ORIENTED_EDGE ( 'NONE', *, *, #269, .T. ) ;
#203 = ADVANCED_FACE ( 'NONE', ( #266, #67 ), #197, .T. ) ;
#204 = CONICAL_SURFACE ( 'NONE', #104, 0.7884999999999990905, 0.5235987755982924874 ) ;
#205 = ORIENTED_EDGE ( 'NONE', *, *, #296, .T. ) ;
#206 = EDGE_LOOP ( 'NONE', ( #4 ) ) ;
#207 = DIRECTION ( 'NONE',  ( 0.0000000000000000000, 1.000000000000000000, 0.0000000000000000000 ) ) ;
#208 = AXIS2_PLACEMENT_3D ( 'NONE', #183, #87, #162 ) ;
#209 = CARTESIAN_POINT ( 'NONE',  ( 2.444036937190193349E-14, -8.572527594031473190E-16, 7.000000000000000000 ) ) ;
#210 = DIRECTION ( 'NONE',  ( 4.275831445896957731E-31, 1.000000000000000000, 1.224646799147353207E-16 ) ) ;
#211 = PERSON_AND_ORGANIZATION ( #96, #249 ) ;
#212 = CALENDAR_DATE ( 2021, 30, 11 ) ;
#213 = EDGE_CURVE ( 'NONE', #24, #24, #105, .T. ) ;
#214 = VERTEX_POINT ( 'NONE', #167 ) ;
#215 = FACE_OUTER_BOUND ( 'NONE', #194, .T. ) ;
#216 = VERTEX_POINT ( 'NONE', #69 ) ;
#217 = EDGE_LOOP ( 'NONE', ( #274 ) ) ;
#218 = EDGE_LOOP ( 'NONE', ( #168 ) ) ;
#219 = CARTESIAN_POINT ( 'NONE',  ( 6.912110748678993013E-14, -2.424442086958568894E-15, 19.79707201004044137 ) ) ;
#220 = PERSON_AND_ORGANIZATION ( #96, #249 ) ;
#221 = DIRECTION ( 'NONE',  ( -4.275831445896958607E-31, -1.000000000000000000, -1.224646799147353207E-16 ) ) ;
#222 = AXIS2_PLACEMENT_3D ( 'NONE', #163, #281, #70 ) ;
#223 = DIRECTION ( 'NONE',  ( 3.491481338843133355E-15, -1.224646799147353207E-16, 1.000000000000000000 ) ) ;
#224 = DIRECTION ( 'NONE',  ( -4.275831445896958607E-31, -1.000000000000000000, -1.224646799147353207E-16 ) ) ;
#225 = PERSON_AND_ORGANIZATION_ROLE ( 'creator' ) ;
#226 = DIRECTION ( 'NONE',  ( 0.0000000000000000000, 1.000000000000000000, 0.0000000000000000000 ) ) ;
#227 = AXIS2_PLACEMENT_3D ( 'NONE', #268, #173, #221 ) ;
#228 = CARTESIAN_POINT ( 'NONE',  ( 8.728703347107829444E-16, -3.061616997868381785E-17, 0.2499999999999998890 ) ) ;
#229 = CARTESIAN_POINT ( 'NONE',  ( 5.237222008264700033E-14, 0.6849999999999980549, 15.00000000000000000 ) ) ;
#230 = CC_DESIGN_DATE_AND_TIME_ASSIGNMENT ( #164, #298, ( #20 ) ) ;
#231 = DIRECTION ( 'NONE',  ( 0.0000000000000000000, 0.0000000000000000000, 1.000000000000000000 ) ) ;
#232 = FACE_OUTER_BOUND ( 'NONE', #217, .T. ) ;
#233 = DIRECTION ( 'NONE',  ( -3.491481338843133355E-15, 1.224646799147353207E-16, -1.000000000000000000 ) ) ;
#234 = AXIS2_PLACEMENT_3D ( 'NONE', #219, #47, #207 ) ;
#235 = DIRECTION ( 'NONE',  ( 3.491481338843133355E-15, -1.224646799147353207E-16, 1.000000000000000000 ) ) ;
#236 = DIRECTION ( 'NONE',  ( -3.491481338843133355E-15, 1.224646799147353207E-16, -1.000000000000000000 ) ) ;
#237 = PERSON_AND_ORGANIZATION_ROLE ( 'creator' ) ;
#238 = PLANE ( 'NONE',  #208 ) ;
#239 = CLOSED_SHELL ( 'NONE', ( #247, #100, #273, #112 ) ) ;
#240 = AXIS2_PLACEMENT_3D ( 'NONE', #27, #174, #169 ) ;
#241 = VERTEX_POINT ( 'NONE', #122 ) ;
#242 = PRODUCT_DEFINITION_SHAPE ( 'NONE', 'NONE',  #20 ) ;
#243 = ORIENTED_EDGE ( 'NONE', *, *, #89, .F. ) ;
#244 = PLANE ( 'NONE',  #227 ) ;
#245 = CYLINDRICAL_SURFACE ( 'NONE', #300, 0.7884999999999995346 ) ;
#246 = MANIFOLD_SOLID_BREP ( 'Corps-Déplacer/Copier1[1]', #53 ) ;
#247 = ADVANCED_FACE ( 'NONE', ( #215 ), #192, .F. ) ;
#248 = FACE_OUTER_BOUND ( 'NONE', #172, .T. ) ;
#249 = ORGANIZATION ( 'UNSPECIFIED', 'UNSPECIFIED', '' ) ;
#250 = AXIS2_PLACEMENT_3D ( 'NONE', #50, #34, #1 ) ;
#251 = FACE_OUTER_BOUND ( 'NONE', #32, .T. ) ;
#252 = APPROVAL_PERSON_ORGANIZATION ( #271, #94, #28 ) ;
#253 = FACE_OUTER_BOUND ( 'NONE', #276, .T. ) ;
#254 = ORIENTED_EDGE ( 'NONE', *, *, #157, .T. ) ;
#255 = DIRECTION ( 'NONE',  ( 0.0000000000000000000, 1.000000000000000000, 0.0000000000000000000 ) ) ;
#256 = LOCAL_TIME ( 9, 32, 50.00000000000000000, #45 ) ;
#257 = CARTESIAN_POINT ( 'NONE',  ( 5.358479882634335789E-14, 0.7153844939755795718, 15.34729635533384595 ) ) ;
#258 = CARTESIAN_POINT ( 'NONE',  ( 5.358479882634335789E-14, -1.879501735712543302E-15, 15.34729635533384595 ) ) ;
#259 = VERTEX_POINT ( 'NONE', #257 ) ;
#260 = ORIENTED_EDGE ( 'NONE', *, *, #165, .T. ) ;
#261 = CARTESIAN_POINT ( 'NONE',  ( 2.444036937190193349E-14, 0.7884999999999990905, 7.000000000000000000 ) ) ;
#262 = CALENDAR_DATE ( 2021, 30, 11 ) ;
#263 = ORIENTED_EDGE ( 'NONE', *, *, #165, .F. ) ;
#264 = FACE_OUTER_BOUND ( 'NONE', #218, .T. ) ;
#265 = EDGE_LOOP ( 'NONE', ( #85 ) ) ;
#266 = FACE_BOUND ( 'NONE', #196, .T. ) ;
#267 = DIRECTION ( 'NONE',  ( -3.491481338843133355E-15, 1.224646799147353207E-16, -1.000000000000000000 ) ) ;
#268 = CARTESIAN_POINT ( 'NONE',  ( 2.444036937190193349E-14, 5.912802943144360810E-33, 7.000000000000000000 ) ) ;
#269 = EDGE_CURVE ( 'NONE', #216, #216, #41, .T. ) ;
#270 = DIRECTION ( 'NONE',  ( 4.275831445896958607E-31, 1.000000000000000000, 1.224646799147353454E-16 ) ) ;
#271 = PERSON_AND_ORGANIZATION ( #96, #249 ) ;
#272 = CARTESIAN_POINT ( 'NONE',  ( 0.0000000000000000000, 0.0000000000000000000, 0.0000000000000000000 ) ) ;
#273 = ADVANCED_FACE ( 'NONE', ( #253, #185 ), #245, .T. ) ;
#274 = ORIENTED_EDGE ( 'NONE', *, *, #269, .F. ) ;
#275 = AXIS2_PLACEMENT_3D ( 'NONE', #302, #141, #65 ) ;
#276 = EDGE_LOOP ( 'NONE', ( #83 ) ) ;
#277 = CARTESIAN_POINT ( 'NONE',  ( -2.754329986015237785E-31, 9.660889100689770629E-33, -7.888714613402049339E-17 ) ) ;
#278 = CARTESIAN_POINT ( 'NONE',  ( 2.444036937190193349E-14, -8.572527594031473190E-16, 7.000000000000000000 ) ) ;
#279 = DATE_AND_TIME ( #190, #150 ) ;
#280 = CARTESIAN_POINT ( 'NONE',  ( 1.735266225405037467E-13, 1.499999999999995559, 49.70000000000000284 ) ) ;
#281 = DIRECTION ( 'NONE',  ( -3.491481338843133355E-15, 1.224646799147353207E-16, -1.000000000000000000 ) ) ;
#282 = FACE_OUTER_BOUND ( 'NONE', #123, .T. ) ;
#283 = EDGE_LOOP ( 'NONE', ( #147 ) ) ;
#284 = AXIS2_PLACEMENT_3D ( 'NONE', #177, #195, #170 ) ;
#285 = ADVANCED_FACE ( 'NONE', ( #282 ), #151, .F. ) ;
#286 = CARTESIAN_POINT ( 'NONE',  ( 1.745740669421566678E-13, -6.123233995736766085E-15, 50.00000000000000000 ) ) ;
#287 = ORIENTED_EDGE ( 'NONE', *, *, #189, .T. ) ;
#288 = APPROVAL_STATUS ( 'not_yet_approved' ) ;
#289 = DIRECTION ( 'NONE',  ( -3.491481338843133355E-15, 1.224646799147353207E-16, -1.000000000000000000 ) ) ;
#290 = CIRCLE ( 'NONE', #21, 0.6441624327025947672 ) ;
#291 = COORDINATED_UNIVERSAL_TIME_OFFSET ( 1, 0, .AHEAD. ) ;
#292 = ORIENTED_EDGE ( 'NONE', *, *, #157, .F. ) ;
#293 = EDGE_LOOP ( 'NONE', ( #51 ) ) ;
#294 = CC_DESIGN_PERSON_AND_ORGANIZATION_ASSIGNMENT ( #220, #154, ( #198 ) ) ;
#295 = CARTESIAN_POINT ( 'NONE',  ( -1.377164993007618893E-31, 4.830444550344885315E-33, -3.944357306701024669E-17 ) ) ;
#296 = EDGE_CURVE ( 'NONE', #214, #214, #171, .T. ) ;
#297 = EDGE_LOOP ( 'NONE', ( #292 ) ) ;
#298 = DATE_TIME_ROLE ( 'creation_date' ) ;
#299 = CIRCLE ( 'NONE', #30, 0.6849999999999999423 ) ;
#300 = AXIS2_PLACEMENT_3D ( 'NONE', #26, #33, #201 ) ;
#301 = DIRECTION ( 'NONE',  ( -4.275831445896958607E-31, -1.000000000000000000, -1.224646799147353207E-16 ) ) ;
#302 = CARTESIAN_POINT ( 'NONE',  ( 1.735266225405037467E-13, -6.086494591762345225E-15, 49.70000000000000284 ) ) ;
#303 = COORDINATED_UNIVERSAL_TIME_OFFSET ( 1, 0, .AHEAD. ) ;
ENDSEC;
END-ISO-10303-21;
