ISO-10303-21;
HEADER;
FILE_DESCRIPTION (( 'STEP AP203' ),
    '1' );
FILE_NAME ('962945.step',
    '2021-10-28T09:23:17',
    ( '' ),
    ( '' ),
    'SwSTEP 2.0',
    'SolidWorks 2019',
    '' );
FILE_SCHEMA (( 'CONFIG_CONTROL_DESIGN' ));
ENDSEC;

DATA;
#1 = APPROVAL_ROLE ( '' ) ;
#2 = CONICAL_SURFACE ( 'NONE', #186, 1.199999999999999956, 0.7853981633974453924 ) ;
#3 = ORIENTED_EDGE ( 'NONE', *, *, #142, .F. ) ;
#4 = APPLICATION_CONTEXT ( 'configuration controlled 3d designs of mechanical parts and assemblies' ) ;
#5 = CARTESIAN_POINT ( 'NONE',  ( 0.0000000000000000000, 0.0000000000000000000, 0.0000000000000000000 ) ) ;
#6 = CIRCLE ( 'NONE', #47, 1.199999999999999956 ) ;
#7 = CARTESIAN_POINT ( 'NONE',  ( 4.189777606611760026E-14, 1.124819836996388690E-32, 12.00000000000000000 ) ) ;
#8 = FACE_OUTER_BOUND ( 'NONE', #19, .T. ) ;
#9 = UNCERTAINTY_MEASURE_WITH_UNIT (LENGTH_MEASURE( 1.000000000000000082E-05 ), #158, 'distance_accuracy_value', 'NONE');
#10 = LOCAL_TIME ( 11, 23, 17.00000000000000000, #18 ) ;
#11 = CC_DESIGN_PERSON_AND_ORGANIZATION_ASSIGNMENT ( #92, #126, ( #65 ) ) ;
#12 = DIRECTION ( 'NONE',  ( -3.491481338843133355E-15, 1.229791517316362731E-16, -1.000000000000000000 ) ) ;
#13 = DATE_AND_TIME ( #208, #41 ) ;
#14 = PERSON_AND_ORGANIZATION ( #183, #31 ) ;
#15 = CARTESIAN_POINT ( 'NONE',  ( 4.189777606611760026E-14, 0.9999999999999985567, 12.00000000000000000 ) ) ;
#16 =( NAMED_UNIT ( * ) PLANE_ANGLE_UNIT ( ) SI_UNIT ( $, .RADIAN. ) );
#17 = AXIS2_PLACEMENT_3D ( 'NONE', #185, #122, #44 ) ;
#18 = COORDINATED_UNIVERSAL_TIME_OFFSET ( 1, 0, .AHEAD. ) ;
#19 = EDGE_LOOP ( 'NONE', ( #56 ) ) ;
#20 = EDGE_LOOP ( 'NONE', ( #209 ) ) ;
#21 = AXIS2_PLACEMENT_3D ( 'NONE', #80, #26, #101 ) ;
#22 = EDGE_CURVE ( 'NONE', #70, #70, #165, .T. ) ;
#23 = EDGE_CURVE ( 'NONE', #115, #115, #35, .T. ) ;
#24 = CARTESIAN_POINT ( 'NONE',  ( 1.326762908760390423E-13, 8.998558695971077224E-33, 38.00000000000000000 ) ) ;
#25 = FACE_OUTER_BOUND ( 'NONE', #141, .T. ) ;
#26 = DIRECTION ( 'NONE',  ( 3.491481338843133355E-15, -1.224646799147353207E-16, 1.000000000000000000 ) ) ;
#27 = DIRECTION ( 'NONE',  ( -3.491481338843133355E-15, 1.224646799147353207E-16, -1.000000000000000000 ) ) ;
#28 = AXIS2_PLACEMENT_3D ( 'NONE', #30, #211, #166 ) ;
#29 = EDGE_CURVE ( 'NONE', #156, #156, #6, .T. ) ;
#30 = CARTESIAN_POINT ( 'NONE',  ( 4.841296894123814959E-14, -1.705232042046728343E-15, 13.86602540378442860 ) ) ;
#31 = ORGANIZATION ( 'UNSPECIFIED', 'UNSPECIFIED', '' ) ;
#32 = CALENDAR_DATE ( 2021, 28, 10 ) ;
#33 = MANIFOLD_SOLID_BREP ( 'Corps-Déplacer/Copier1[2]', #45 ) ;
#34 = CARTESIAN_POINT ( 'NONE',  ( 1.316288464743861212E-13, 1.499999999999995337, 37.69999999999999574 ) ) ;
#35 = CIRCLE ( 'NONE', #17, 1.000000000000000000 ) ;
#36 = ADVANCED_FACE ( 'NONE', ( #85 ), #149, .T. ) ;
#37 = EDGE_LOOP ( 'NONE', ( #223 ) ) ;
#38 = EDGE_LOOP ( 'NONE', ( #78 ) ) ;
#39 = APPROVAL ( #108, 'UNSPECIFIED' ) ;
#40 = EDGE_LOOP ( 'NONE', ( #160 ) ) ;
#41 = LOCAL_TIME ( 11, 23, 17.00000000000000000, #91 ) ;
#42 = FACE_OUTER_BOUND ( 'NONE', #196, .T. ) ;
#43 = FACE_BOUND ( 'NONE', #111, .T. ) ;
#44 = DIRECTION ( 'NONE',  ( -3.851859888774471706E-31, -1.000000000000000000, -1.084202172485504434E-16 ) ) ;
#45 = CLOSED_SHELL ( 'NONE', ( #36, #199, #106 ) ) ;
#46 = CC_DESIGN_DATE_AND_TIME_ASSIGNMENT ( #81, #177, ( #138 ) ) ;
#47 = AXIS2_PLACEMENT_3D ( 'NONE', #181, #179, #144 ) ;
#48 = CC_DESIGN_APPROVAL ( #207, ( #138 ) ) ;
#49 = DIRECTION ( 'NONE',  ( -3.491481338843133355E-15, 1.224646799147353207E-16, -1.000000000000000000 ) ) ;
#50 = ADVANCED_BREP_SHAPE_REPRESENTATION ( '962945', ( #113, #33, #145 ), #146 ) ;
#51 = SECURITY_CLASSIFICATION_LEVEL ( 'unclassified' ) ;
#52 = DIRECTION ( 'NONE',  ( 0.0000000000000000000, 0.0000000000000000000, 1.000000000000000000 ) ) ;
#53 = AXIS2_PLACEMENT_3D ( 'NONE', #151, #61, #200 ) ;
#54 = PERSON_AND_ORGANIZATION ( #183, #31 ) ;
#55 = EDGE_CURVE ( 'NONE', #170, #170, #188, .T. ) ;
#56 = ORIENTED_EDGE ( 'NONE', *, *, #204, .T. ) ;
#57 = SHAPE_DEFINITION_REPRESENTATION ( #215, #50 ) ;
#58 = AXIS2_PLACEMENT_3D ( 'NONE', #133, #198, #167 ) ;
#59 = EDGE_LOOP ( 'NONE', ( #75 ) ) ;
#60 = PERSON_AND_ORGANIZATION ( #183, #31 ) ;
#61 = DIRECTION ( 'NONE',  ( -3.491481338843133355E-15, 1.229791517316362731E-16, -1.000000000000000000 ) ) ;
#62 = AXIS2_PLACEMENT_3D ( 'NONE', #5, #201, #168 ) ;
#63 = CARTESIAN_POINT ( 'NONE',  ( 1.326762908760390423E-13, -4.653657836759941941E-15, 38.00000000000000000 ) ) ;
#64 = CC_DESIGN_DATE_AND_TIME_ASSIGNMENT ( #110, #189, ( #116 ) ) ;
#65 = PRODUCT ( '962945', '962945', '', ( #206 ) ) ;
#66 = DIRECTION ( 'NONE',  ( 0.0000000000000000000, 1.000000000000000000, 0.0000000000000000000 ) ) ;
#67 = DIRECTION ( 'NONE',  ( 4.275831445896958607E-31, 1.000000000000000000, 1.224646799147353207E-16 ) ) ;
#68 = APPROVAL ( #190, 'UNSPECIFIED' ) ;
#69 = AXIS2_PLACEMENT_3D ( 'NONE', #7, #216, #187 ) ;
#70 = VERTEX_POINT ( 'NONE', #136 ) ;
#71 =( NAMED_UNIT ( * ) SI_UNIT ( $, .STERADIAN. ) SOLID_ANGLE_UNIT ( ) );
#72 = DIRECTION ( 'NONE',  ( 1.000000000000000000, 0.0000000000000000000, 0.0000000000000000000 ) ) ;
#73 = LOCAL_TIME ( 11, 23, 17.00000000000000000, #154 ) ;
#74 = ADVANCED_FACE ( 'NONE', ( #120 ), #214, .F. ) ;
#75 = ORIENTED_EDGE ( 'NONE', *, *, #23, .F. ) ;
#76 = COORDINATED_UNIVERSAL_TIME_OFFSET ( 1, 0, .AHEAD. ) ;
#77 = AXIS2_PLACEMENT_3D ( 'NONE', #86, #12, #88 ) ;
#78 = ORIENTED_EDGE ( 'NONE', *, *, #22, .F. ) ;
#79 = COORDINATED_UNIVERSAL_TIME_OFFSET ( 1, 0, .AHEAD. ) ;
#80 = CARTESIAN_POINT ( 'NONE',  ( 1.906192921252232855E-15, -6.686024735685322183E-17, 0.5459553513993090634 ) ) ;
#81 = DATE_AND_TIME ( #210, #73 ) ;
#82 = DIRECTION ( 'NONE',  ( 3.491481338843133355E-15, -1.224646799147353207E-16, 1.000000000000000000 ) ) ;
#83 = ADVANCED_FACE ( 'NONE', ( #25, #97 ), #148, .T. ) ;
#84 = DATE_AND_TIME ( #132, #94 ) ;
#85 = FACE_OUTER_BOUND ( 'NONE', #171, .T. ) ;
#86 = CARTESIAN_POINT ( 'NONE',  ( 4.189777606611760026E-14, -1.475749820779635178E-15, 12.00000000000000000 ) ) ;
#87 = PRODUCT_DEFINITION_FORMATION_WITH_SPECIFIED_SOURCE ( 'ANY', '', #65, .NOT_KNOWN. ) ;
#88 = DIRECTION ( 'NONE',  ( 0.0000000000000000000, 1.000000000000000000, 0.0000000000000000000 ) ) ;
#89 = CC_DESIGN_PERSON_AND_ORGANIZATION_ASSIGNMENT ( #14, #124, ( #138 ) ) ;
#90 = PERSON_AND_ORGANIZATION ( #183, #31 ) ;
#91 = COORDINATED_UNIVERSAL_TIME_OFFSET ( 1, 0, .AHEAD. ) ;
#92 = PERSON_AND_ORGANIZATION ( #183, #31 ) ;
#93 = CC_DESIGN_PERSON_AND_ORGANIZATION_ASSIGNMENT ( #96, #143, ( #87 ) ) ;
#94 = LOCAL_TIME ( 11, 23, 17.00000000000000000, #79 ) ;
#95 = CARTESIAN_POINT ( 'NONE',  ( 1.270795280834825190E-15, -1.000000000000000000, 0.3639702342662070045 ) ) ;
#96 = PERSON_AND_ORGANIZATION ( #183, #31 ) ;
#97 = FACE_OUTER_BOUND ( 'NONE', #173, .T. ) ;
#98 = FACE_OUTER_BOUND ( 'NONE', #20, .T. ) ;
#99 = AXIS2_PLACEMENT_3D ( 'NONE', #202, #49, #219 ) ;
#100 = FACE_BOUND ( 'NONE', #38, .T. ) ;
#101 = DIRECTION ( 'NONE',  ( -5.135813185032644414E-31, -1.000000000000000000, -1.445602896647343601E-16 ) ) ;
#102 = CC_DESIGN_SECURITY_CLASSIFICATION ( #138, ( #87 ) ) ;
#103 = CYLINDRICAL_SURFACE ( 'NONE', #62, 1.000000000000000000 ) ;
#104 = CC_DESIGN_PERSON_AND_ORGANIZATION_ASSIGNMENT ( #137, #155, ( #116 ) ) ;
#105 = PERSON_AND_ORGANIZATION ( #183, #31 ) ;
#106 = ADVANCED_FACE ( 'NONE', ( #42 ), #178, .T. ) ;
#107 = APPROVAL_DATE_TIME ( #13, #68 ) ;
#108 = APPROVAL_STATUS ( 'not_yet_approved' ) ;
#109 = CIRCLE ( 'NONE', #28, 1.499999999999998446 ) ;
#110 = DATE_AND_TIME ( #128, #174 ) ;
#111 = EDGE_LOOP ( 'NONE', ( #195 ) ) ;
#112 = ORIENTED_EDGE ( 'NONE', *, *, #23, .T. ) ;
#113 = MANIFOLD_SOLID_BREP ( 'Corps-Déplacer/Copier1[1]', #193 ) ;
#114 = APPROVAL_PERSON_ORGANIZATION ( #54, #39, #172 ) ;
#115 = VERTEX_POINT ( 'NONE', #95 ) ;
#116 = PRODUCT_DEFINITION ( 'UNKNOWN', '', #87, #220 ) ;
#117 = FACE_OUTER_BOUND ( 'NONE', #37, .T. ) ;
#118 = CARTESIAN_POINT ( 'NONE',  ( 4.189777606611760026E-14, 1.124819836996388690E-32, 12.00000000000000000 ) ) ;
#119 = AXIS2_PLACEMENT_3D ( 'NONE', #118, #82, #203 ) ;
#120 = FACE_OUTER_BOUND ( 'NONE', #40, .T. ) ;
#121 = ADVANCED_FACE ( 'NONE', ( #100, #98 ), #152, .T. ) ;
#122 = DIRECTION ( 'NONE',  ( -3.491481338843133355E-15, 1.224646799147353207E-16, -1.000000000000000000 ) ) ;
#123 = ADVANCED_FACE ( 'NONE', ( #117 ), #134, .F. ) ;
#124 = PERSON_AND_ORGANIZATION_ROLE ( 'classification_officer' ) ;
#125 = CC_DESIGN_APPROVAL ( #68, ( #116 ) ) ;
#126 = PERSON_AND_ORGANIZATION_ROLE ( 'design_owner' ) ;
#127 = APPROVAL_DATE_TIME ( #222, #39 ) ;
#128 = CALENDAR_DATE ( 2021, 28, 10 ) ;
#129 = ORIENTED_EDGE ( 'NONE', *, *, #204, .F. ) ;
#130 = CC_DESIGN_APPROVAL ( #39, ( #87 ) ) ;
#131 = DIRECTION ( 'NONE',  ( -3.491481338843133355E-15, 1.224646799147353207E-16, -1.000000000000000000 ) ) ;
#132 = CALENDAR_DATE ( 2021, 28, 10 ) ;
#133 = CARTESIAN_POINT ( 'NONE',  ( 4.841296894123814959E-14, -1.705232042046728343E-15, 13.86602540378442860 ) ) ;
#134 = PLANE ( 'NONE',  #119 ) ;
#135 = CARTESIAN_POINT ( 'NONE',  ( 0.0000000000000000000, 0.0000000000000000000, 0.0000000000000000000 ) ) ;
#136 = CARTESIAN_POINT ( 'NONE',  ( 4.189777606611760026E-14, 0.9999999999999985567, 12.00000000000000000 ) ) ;
#137 = PERSON_AND_ORGANIZATION ( #183, #31 ) ;
#138 = SECURITY_CLASSIFICATION ( '', '', #51 ) ;
#139 = APPLICATION_PROTOCOL_DEFINITION ( 'international standard', 'config_control_design', 1994, #182 ) ;
#140 = CARTESIAN_POINT ( 'NONE',  ( 0.0000000000000000000, 0.0000000000000000000, 0.0000000000000000000 ) ) ;
#141 = EDGE_LOOP ( 'NONE', ( #3 ) ) ;
#142 = EDGE_CURVE ( 'NONE', #205, #205, #109, .T. ) ;
#143 = PERSON_AND_ORGANIZATION_ROLE ( 'design_supplier' ) ;
#144 = DIRECTION ( 'NONE',  ( 0.0000000000000000000, 1.000000000000000000, 0.0000000000000000000 ) ) ;
#145 = AXIS2_PLACEMENT_3D ( 'NONE', #140, #52, #72 ) ;
#146 =( GEOMETRIC_REPRESENTATION_CONTEXT ( 3 ) GLOBAL_UNCERTAINTY_ASSIGNED_CONTEXT ( ( #9 ) ) GLOBAL_UNIT_ASSIGNED_CONTEXT ( ( #158, #16, #71 ) ) REPRESENTATION_CONTEXT ( 'NONE', 'WORKASPACE' ) );
#147 = DIRECTION ( 'NONE',  ( -3.491481338843133355E-15, 1.224646799147353207E-16, -1.000000000000000000 ) ) ;
#148 = CYLINDRICAL_SURFACE ( 'NONE', #150, 1.499999999999998224 ) ;
#149 = PLANE ( 'NONE',  #69 ) ;
#150 = AXIS2_PLACEMENT_3D ( 'NONE', #135, #27, #162 ) ;
#151 = CARTESIAN_POINT ( 'NONE',  ( 4.189777606611760026E-14, -1.475749820779635178E-15, 12.00000000000000000 ) ) ;
#152 = CONICAL_SURFACE ( 'NONE', #58, 1.499999999999998446, 0.2617993877991500740 ) ;
#153 = VERTEX_POINT ( 'NONE', #15 ) ;
#154 = COORDINATED_UNIVERSAL_TIME_OFFSET ( 1, 0, .AHEAD. ) ;
#155 = PERSON_AND_ORGANIZATION_ROLE ( 'creator' ) ;
#156 = VERTEX_POINT ( 'NONE', #221 ) ;
#157 = CC_DESIGN_PERSON_AND_ORGANIZATION_ASSIGNMENT ( #90, #191, ( #87 ) ) ;
#158 =( LENGTH_UNIT ( ) NAMED_UNIT ( * ) SI_UNIT ( .MILLI., .METRE. ) );
#159 = APPROVAL_ROLE ( '' ) ;
#160 = ORIENTED_EDGE ( 'NONE', *, *, #29, .F. ) ;
#161 = ORIENTED_EDGE ( 'NONE', *, *, #55, .F. ) ;
#162 = DIRECTION ( 'NONE',  ( 4.275831445896958607E-31, 1.000000000000000000, 1.224646799147353207E-16 ) ) ;
#163 = FACE_OUTER_BOUND ( 'NONE', #59, .T. ) ;
#164 = APPROVAL_STATUS ( 'not_yet_approved' ) ;
#165 = CIRCLE ( 'NONE', #53, 1.000000000000000000 ) ;
#166 = DIRECTION ( 'NONE',  ( 0.0000000000000000000, 1.000000000000000000, 0.0000000000000000000 ) ) ;
#167 = DIRECTION ( 'NONE',  ( 0.0000000000000000000, -1.000000000000000000, 0.0000000000000000000 ) ) ;
#168 = DIRECTION ( 'NONE',  ( 4.293794133377662246E-31, 1.000000000000000000, 1.229791517316362977E-16 ) ) ;
#169 = CIRCLE ( 'NONE', #77, 1.000000000000000000 ) ;
#170 = VERTEX_POINT ( 'NONE', #34 ) ;
#171 = EDGE_LOOP ( 'NONE', ( #129 ) ) ;
#172 = APPROVAL_ROLE ( '' ) ;
#173 = EDGE_LOOP ( 'NONE', ( #194 ) ) ;
#174 = LOCAL_TIME ( 11, 23, 17.00000000000000000, #76 ) ;
#175 = CARTESIAN_POINT ( 'NONE',  ( 4.841296894123814959E-14, 1.499999999999996669, 13.86602540378442860 ) ) ;
#176 = EDGE_LOOP ( 'NONE', ( #161 ) ) ;
#177 = DATE_TIME_ROLE ( 'classification_date' ) ;
#178 = CONICAL_SURFACE ( 'NONE', #21, 1.499999999999995559, 1.221730476396026388 ) ;
#179 = DIRECTION ( 'NONE',  ( -3.491481338843133355E-15, 1.224646799147353207E-16, -1.000000000000000000 ) ) ;
#180 = APPROVAL_DATE_TIME ( #84, #207 ) ;
#181 = CARTESIAN_POINT ( 'NONE',  ( 1.326762908760390423E-13, -4.653657836759941941E-15, 38.00000000000000000 ) ) ;
#182 = APPLICATION_CONTEXT ( 'configuration controlled 3d designs of mechanical parts and assemblies' ) ;
#183 = PERSON ( 'UNSPECIFIED', 'UNSPECIFIED', 'UNSPECIFIED', ('UNSPECIFIED'), ('UNSPECIFIED'), ('UNSPECIFIED') ) ;
#184 = ADVANCED_FACE ( 'NONE', ( #213, #43 ), #2, .T. ) ;
#185 = CARTESIAN_POINT ( 'NONE',  ( 1.270795280834825585E-15, -4.457349823790227936E-17, 0.3639702342662071155 ) ) ;
#186 = AXIS2_PLACEMENT_3D ( 'NONE', #63, #131, #66 ) ;
#187 = DIRECTION ( 'NONE',  ( -4.275831445896958607E-31, -1.000000000000000000, -1.224646799147353207E-16 ) ) ;
#188 = CIRCLE ( 'NONE', #99, 1.499999999999999778 ) ;
#189 = DATE_TIME_ROLE ( 'creation_date' ) ;
#190 = APPROVAL_STATUS ( 'not_yet_approved' ) ;
#191 = PERSON_AND_ORGANIZATION_ROLE ( 'creator' ) ;
#192 = APPLICATION_PROTOCOL_DEFINITION ( 'international standard', 'config_control_design', 1994, #4 ) ;
#193 = CLOSED_SHELL ( 'NONE', ( #83, #184, #74, #121, #123 ) ) ;
#194 = ORIENTED_EDGE ( 'NONE', *, *, #55, .T. ) ;
#195 = ORIENTED_EDGE ( 'NONE', *, *, #29, .T. ) ;
#196 = EDGE_LOOP ( 'NONE', ( #112 ) ) ;
#197 = APPROVAL_PERSON_ORGANIZATION ( #60, #207, #159 ) ;
#198 = DIRECTION ( 'NONE',  ( 3.491481338843133355E-15, -1.229791517316362731E-16, 1.000000000000000000 ) ) ;
#199 = ADVANCED_FACE ( 'NONE', ( #8, #163 ), #103, .T. ) ;
#200 = DIRECTION ( 'NONE',  ( 0.0000000000000000000, 1.000000000000000000, 0.0000000000000000000 ) ) ;
#201 = DIRECTION ( 'NONE',  ( -3.491481338843133355E-15, 1.229791517316362731E-16, -1.000000000000000000 ) ) ;
#202 = CARTESIAN_POINT ( 'NONE',  ( 1.316288464743861212E-13, -4.616918432785521081E-15, 37.69999999999999574 ) ) ;
#203 = DIRECTION ( 'NONE',  ( -4.275831445896958607E-31, -1.000000000000000000, -1.224646799147353207E-16 ) ) ;
#204 = EDGE_CURVE ( 'NONE', #153, #153, #169, .T. ) ;
#205 = VERTEX_POINT ( 'NONE', #175 ) ;
#206 = MECHANICAL_CONTEXT ( 'NONE', #4, 'mechanical' ) ;
#207 = APPROVAL ( #164, 'UNSPECIFIED' ) ;
#208 = CALENDAR_DATE ( 2021, 28, 10 ) ;
#209 = ORIENTED_EDGE ( 'NONE', *, *, #142, .T. ) ;
#210 = CALENDAR_DATE ( 2021, 28, 10 ) ;
#211 = DIRECTION ( 'NONE',  ( -3.491481338843133355E-15, 1.229791517316362731E-16, -1.000000000000000000 ) ) ;
#212 = PRODUCT_RELATED_PRODUCT_CATEGORY ( 'detail', '', ( #65 ) ) ;
#213 = FACE_OUTER_BOUND ( 'NONE', #176, .T. ) ;
#214 = PLANE ( 'NONE',  #218 ) ;
#215 = PRODUCT_DEFINITION_SHAPE ( 'NONE', 'NONE',  #116 ) ;
#216 = DIRECTION ( 'NONE',  ( 3.491481338843133355E-15, -1.224646799147353207E-16, 1.000000000000000000 ) ) ;
#217 = APPROVAL_PERSON_ORGANIZATION ( #105, #68, #1 ) ;
#218 = AXIS2_PLACEMENT_3D ( 'NONE', #24, #147, #67 ) ;
#219 = DIRECTION ( 'NONE',  ( 0.0000000000000000000, 1.000000000000000000, 0.0000000000000000000 ) ) ;
#220 = DESIGN_CONTEXT ( 'detailed design', #182, 'design' ) ;
#221 = CARTESIAN_POINT ( 'NONE',  ( 1.326762908760390423E-13, 1.199999999999995293, 38.00000000000000000 ) ) ;
#222 = DATE_AND_TIME ( #32, #10 ) ;
#223 = ORIENTED_EDGE ( 'NONE', *, *, #22, .T. ) ;
ENDSEC;
END-ISO-10303-21;
