ISO-10303-21;
HEADER;
FILE_DESCRIPTION (( 'STEP AP203' ),
    '1' );
FILE_NAME ('962944.step',
    '2021-10-28T09:23:16',
    ( '' ),
    ( '' ),
    'SwSTEP 2.0',
    'SolidWorks 2019',
    '' );
FILE_SCHEMA (( 'CONFIG_CONTROL_DESIGN' ));
ENDSEC;

DATA;
#1 = APPROVAL_ROLE ( '' ) ;
#2 = ORIENTED_EDGE ( 'NONE', *, *, #46, .F. ) ;
#3 = ORIENTED_EDGE ( 'NONE', *, *, #46, .T. ) ;
#4 =( GEOMETRIC_REPRESENTATION_CONTEXT ( 3 ) GLOBAL_UNCERTAINTY_ASSIGNED_CONTEXT ( ( #221 ) ) GLOBAL_UNIT_ASSIGNED_CONTEXT ( ( #51, #99, #13 ) ) REPRESENTATION_CONTEXT ( 'NONE', 'WORKASPACE' ) );
#5 = CARTESIAN_POINT ( 'NONE',  ( 4.189777606611760026E-14, -1.475749820779635178E-15, 12.00000000000000000 ) ) ;
#6 = ADVANCED_FACE ( 'NONE', ( #23 ), #138, .F. ) ;
#7 = DIRECTION ( 'NONE',  ( -3.491481338843133355E-15, 1.229791517316362731E-16, -1.000000000000000000 ) ) ;
#8 = CARTESIAN_POINT ( 'NONE',  ( 4.189777606611760026E-14, 1.124819836996388690E-32, 12.00000000000000000 ) ) ;
#9 = DIRECTION ( 'NONE',  ( -3.491481338843133355E-15, 1.224646799147353207E-16, -1.000000000000000000 ) ) ;
#10 = ADVANCED_FACE ( 'NONE', ( #197, #95 ), #192, .T. ) ;
#11 = APPLICATION_PROTOCOL_DEFINITION ( 'international standard', 'config_control_design', 1994, #132 ) ;
#12 = AXIS2_PLACEMENT_3D ( 'NONE', #166, #214, #198 ) ;
#13 =( NAMED_UNIT ( * ) SI_UNIT ( $, .STERADIAN. ) SOLID_ANGLE_UNIT ( ) );
#14 = CC_DESIGN_DATE_AND_TIME_ASSIGNMENT ( #135, #104, ( #42 ) ) ;
#15 = ADVANCED_BREP_SHAPE_REPRESENTATION ( '962944', ( #174, #20, #69 ), #4 ) ;
#16 = CARTESIAN_POINT ( 'NONE',  ( 1.239025398813954511E-15, -0.9749999999999999778, 0.3548709784095517850 ) ) ;
#17 = AXIS2_PLACEMENT_3D ( 'NONE', #80, #185, #43 ) ;
#18 = CLOSED_SHELL ( 'NONE', ( #193, #10, #6, #121, #160 ) ) ;
#19 = ORIENTED_EDGE ( 'NONE', *, *, #169, .T. ) ;
#20 = MANIFOLD_SOLID_BREP ( 'Corps-Déplacer/Copier1[2]', #171 ) ;
#21 = CC_DESIGN_APPROVAL ( #98, ( #93 ) ) ;
#22 = DATE_AND_TIME ( #194, #102 ) ;
#23 = FACE_OUTER_BOUND ( 'NONE', #139, .T. ) ;
#24 = FACE_OUTER_BOUND ( 'NONE', #56, .T. ) ;
#25 = CIRCLE ( 'NONE', #65, 0.9749999999999999778 ) ;
#26 = CYLINDRICAL_SURFACE ( 'NONE', #206, 0.9749999999999999778 ) ;
#27 = PLANE ( 'NONE',  #159 ) ;
#28 = DIRECTION ( 'NONE',  ( -3.950625526948176086E-31, -1.000000000000000000, -1.112002228190260952E-16 ) ) ;
#29 = CARTESIAN_POINT ( 'NONE',  ( 0.0000000000000000000, 0.0000000000000000000, 0.0000000000000000000 ) ) ;
#30 = AXIS2_PLACEMENT_3D ( 'NONE', #78, #7, #66 ) ;
#31 = COORDINATED_UNIVERSAL_TIME_OFFSET ( 1, 0, .AHEAD. ) ;
#32 = COORDINATED_UNIVERSAL_TIME_OFFSET ( 1, 0, .AHEAD. ) ;
#33 = AXIS2_PLACEMENT_3D ( 'NONE', #211, #45, #183 ) ;
#34 = COORDINATED_UNIVERSAL_TIME_OFFSET ( 1, 0, .AHEAD. ) ;
#35 = PRODUCT_RELATED_PRODUCT_CATEGORY ( 'detail', '', ( #176 ) ) ;
#36 = EDGE_LOOP ( 'NONE', ( #19 ) ) ;
#37 = CIRCLE ( 'NONE', #33, 1.199999999999999956 ) ;
#38 = DATE_AND_TIME ( #136, #123 ) ;
#39 = ORIENTED_EDGE ( 'NONE', *, *, #55, .T. ) ;
#40 = APPROVAL_STATUS ( 'not_yet_approved' ) ;
#41 = FACE_OUTER_BOUND ( 'NONE', #180, .T. ) ;
#42 = PRODUCT_DEFINITION ( 'UNKNOWN', '', #118, #49 ) ;
#43 = DIRECTION ( 'NONE',  ( 0.0000000000000000000, 1.000000000000000000, 0.0000000000000000000 ) ) ;
#44 = LOCAL_TIME ( 11, 23, 16.00000000000000000, #32 ) ;
#45 = DIRECTION ( 'NONE',  ( -3.491481338843133355E-15, 1.224646799147353207E-16, -1.000000000000000000 ) ) ;
#46 = EDGE_CURVE ( 'NONE', #92, #92, #128, .T. ) ;
#47 = FACE_OUTER_BOUND ( 'NONE', #36, .T. ) ;
#48 = CARTESIAN_POINT ( 'NONE',  ( 4.873872858499418463E-14, 1.499999999999996669, 13.95932667397365101 ) ) ;
#49 = DESIGN_CONTEXT ( 'detailed design', #161, 'design' ) ;
#50 = EDGE_CURVE ( 'NONE', #64, #64, #37, .T. ) ;
#51 =( LENGTH_UNIT ( ) NAMED_UNIT ( * ) SI_UNIT ( .MILLI., .METRE. ) );
#52 = SECURITY_CLASSIFICATION_LEVEL ( 'unclassified' ) ;
#53 = CC_DESIGN_SECURITY_CLASSIFICATION ( #93, ( #118 ) ) ;
#54 = PERSON_AND_ORGANIZATION_ROLE ( 'creator' ) ;
#55 = EDGE_CURVE ( 'NONE', #112, #112, #164, .T. ) ;
#56 = EDGE_LOOP ( 'NONE', ( #2 ) ) ;
#57 = APPROVAL_DATE_TIME ( #38, #98 ) ;
#58 = EDGE_LOOP ( 'NONE', ( #72 ) ) ;
#59 = ORIENTED_EDGE ( 'NONE', *, *, #130, .F. ) ;
#60 = LOCAL_TIME ( 11, 23, 16.00000000000000000, #218 ) ;
#61 = EDGE_CURVE ( 'NONE', #205, #205, #199, .T. ) ;
#62 = DIRECTION ( 'NONE',  ( 0.0000000000000000000, -1.000000000000000000, 0.0000000000000000000 ) ) ;
#63 = DIRECTION ( 'NONE',  ( -3.491481338843133355E-15, 1.224646799147353207E-16, -1.000000000000000000 ) ) ;
#64 = VERTEX_POINT ( 'NONE', #127 ) ;
#65 = AXIS2_PLACEMENT_3D ( 'NONE', #111, #184, #28 ) ;
#66 = DIRECTION ( 'NONE',  ( 0.0000000000000000000, 1.000000000000000000, 0.0000000000000000000 ) ) ;
#67 = DIRECTION ( 'NONE',  ( 4.293794133377662246E-31, 1.000000000000000000, 1.229791517316362731E-16 ) ) ;
#68 = DIRECTION ( 'NONE',  ( 0.0000000000000000000, 0.0000000000000000000, 1.000000000000000000 ) ) ;
#69 = AXIS2_PLACEMENT_3D ( 'NONE', #115, #68, #100 ) ;
#70 = APPROVAL_ROLE ( '' ) ;
#71 = MECHANICAL_CONTEXT ( 'NONE', #132, 'mechanical' ) ;
#72 = ORIENTED_EDGE ( 'NONE', *, *, #50, .T. ) ;
#73 = CC_DESIGN_APPROVAL ( #120, ( #118 ) ) ;
#74 = ADVANCED_FACE ( 'NONE', ( #196, #41 ), #26, .T. ) ;
#75 = CYLINDRICAL_SURFACE ( 'NONE', #223, 1.499999999999998224 ) ;
#76 = CARTESIAN_POINT ( 'NONE',  ( 4.873872858499418463E-14, -1.716706153110083080E-15, 13.95932667397365101 ) ) ;
#77 = CARTESIAN_POINT ( 'NONE',  ( 1.326762908760390423E-13, 8.998558695971077224E-33, 38.00000000000000000 ) ) ;
#78 = CARTESIAN_POINT ( 'NONE',  ( 4.189777606611760026E-14, -1.475749820779635178E-15, 12.00000000000000000 ) ) ;
#79 = CONICAL_SURFACE ( 'NONE', #90, 1.499999999999995559, 1.221730476396026388 ) ;
#80 = CARTESIAN_POINT ( 'NONE',  ( 1.326762908760390423E-13, -4.653657836759941941E-15, 38.00000000000000000 ) ) ;
#81 = CARTESIAN_POINT ( 'NONE',  ( 4.189777606611760026E-14, 0.9749999999999984235, 12.00000000000000000 ) ) ;
#82 = APPLICATION_PROTOCOL_DEFINITION ( 'international standard', 'config_control_design', 1994, #161 ) ;
#83 = APPROVAL_DATE_TIME ( #190, #110 ) ;
#84 = ORGANIZATION ( 'UNSPECIFIED', 'UNSPECIFIED', '' ) ;
#85 = PERSON_AND_ORGANIZATION ( #148, #84 ) ;
#86 = CC_DESIGN_PERSON_AND_ORGANIZATION_ASSIGNMENT ( #103, #188, ( #42 ) ) ;
#87 = APPROVAL_STATUS ( 'not_yet_approved' ) ;
#88 = DATE_TIME_ROLE ( 'classification_date' ) ;
#89 = EDGE_LOOP ( 'NONE', ( #59 ) ) ;
#90 = AXIS2_PLACEMENT_3D ( 'NONE', #212, #125, #96 ) ;
#91 = ORIENTED_EDGE ( 'NONE', *, *, #169, .F. ) ;
#92 = VERTEX_POINT ( 'NONE', #48 ) ;
#93 = SECURITY_CLASSIFICATION ( '', '', #52 ) ;
#94 = DIRECTION ( 'NONE',  ( 3.491481338843133355E-15, -1.224646799147353207E-16, 1.000000000000000000 ) ) ;
#95 = FACE_BOUND ( 'NONE', #58, .T. ) ;
#96 = DIRECTION ( 'NONE',  ( -5.135813185032644414E-31, -1.000000000000000000, -1.445602896647343601E-16 ) ) ;
#97 = DIRECTION ( 'NONE',  ( -4.275831445896958607E-31, -1.000000000000000000, -1.224646799147353207E-16 ) ) ;
#98 = APPROVAL ( #40, 'UNSPECIFIED' ) ;
#99 =( NAMED_UNIT ( * ) PLANE_ANGLE_UNIT ( ) SI_UNIT ( $, .RADIAN. ) );
#100 = DIRECTION ( 'NONE',  ( 1.000000000000000000, 0.0000000000000000000, 0.0000000000000000000 ) ) ;
#101 = CALENDAR_DATE ( 2021, 28, 10 ) ;
#102 = LOCAL_TIME ( 11, 23, 16.00000000000000000, #34 ) ;
#103 = PERSON_AND_ORGANIZATION ( #148, #84 ) ;
#104 = DATE_TIME_ROLE ( 'creation_date' ) ;
#105 = AXIS2_PLACEMENT_3D ( 'NONE', #8, #94, #165 ) ;
#106 = ORIENTED_EDGE ( 'NONE', *, *, #50, .F. ) ;
#107 = EDGE_LOOP ( 'NONE', ( #157 ) ) ;
#108 = APPROVAL_PERSON_ORGANIZATION ( #210, #98, #1 ) ;
#109 = FACE_OUTER_BOUND ( 'NONE', #178, .T. ) ;
#110 = APPROVAL ( #87, 'UNSPECIFIED' ) ;
#111 = CARTESIAN_POINT ( 'NONE',  ( 1.239025398813954906E-15, -4.345916078195471005E-17, 0.3548709784095518960 ) ) ;
#112 = VERTEX_POINT ( 'NONE', #81 ) ;
#113 = CC_DESIGN_PERSON_AND_ORGANIZATION_ASSIGNMENT ( #85, #153, ( #118 ) ) ;
#114 = AXIS2_PLACEMENT_3D ( 'NONE', #77, #63, #216 ) ;
#115 = CARTESIAN_POINT ( 'NONE',  ( 0.0000000000000000000, 0.0000000000000000000, 0.0000000000000000000 ) ) ;
#116 = APPROVAL_ROLE ( '' ) ;
#117 = PERSON_AND_ORGANIZATION ( #148, #84 ) ;
#118 = PRODUCT_DEFINITION_FORMATION_WITH_SPECIFIED_SOURCE ( 'ANY', '', #176, .NOT_KNOWN. ) ;
#119 = PERSON_AND_ORGANIZATION ( #148, #84 ) ;
#120 = APPROVAL ( #134, 'UNSPECIFIED' ) ;
#121 = ADVANCED_FACE ( 'NONE', ( #131, #109 ), #144, .T. ) ;
#122 = ORIENTED_EDGE ( 'NONE', *, *, #61, .F. ) ;
#123 = LOCAL_TIME ( 11, 23, 16.00000000000000000, #156 ) ;
#124 = CARTESIAN_POINT ( 'NONE',  ( 4.189777606611760026E-14, 1.124819836996388690E-32, 12.00000000000000000 ) ) ;
#125 = DIRECTION ( 'NONE',  ( 3.491481338843133355E-15, -1.224646799147353207E-16, 1.000000000000000000 ) ) ;
#126 = ADVANCED_FACE ( 'NONE', ( #147 ), #27, .T. ) ;
#127 = CARTESIAN_POINT ( 'NONE',  ( 1.326762908760390423E-13, 1.199999999999995293, 38.00000000000000000 ) ) ;
#128 = CIRCLE ( 'NONE', #219, 1.499999999999998446 ) ;
#129 = DIRECTION ( 'NONE',  ( -3.491481338843133355E-15, 1.229791517316362731E-16, -1.000000000000000000 ) ) ;
#130 = EDGE_CURVE ( 'NONE', #217, #217, #203, .T. ) ;
#131 = FACE_BOUND ( 'NONE', #195, .T. ) ;
#132 = APPLICATION_CONTEXT ( 'configuration controlled 3d designs of mechanical parts and assemblies' ) ;
#133 = LOCAL_TIME ( 11, 23, 16.00000000000000000, #31 ) ;
#134 = APPROVAL_STATUS ( 'not_yet_approved' ) ;
#135 = DATE_AND_TIME ( #220, #133 ) ;
#136 = CALENDAR_DATE ( 2021, 28, 10 ) ;
#137 = ADVANCED_FACE ( 'NONE', ( #47 ), #79, .T. ) ;
#138 = PLANE ( 'NONE',  #114 ) ;
#139 = EDGE_LOOP ( 'NONE', ( #106 ) ) ;
#140 = APPROVAL_PERSON_ORGANIZATION ( #117, #120, #70 ) ;
#141 = EDGE_LOOP ( 'NONE', ( #179 ) ) ;
#142 = CC_DESIGN_PERSON_AND_ORGANIZATION_ASSIGNMENT ( #119, #191, ( #93 ) ) ;
#143 = CARTESIAN_POINT ( 'NONE',  ( 0.0000000000000000000, 0.0000000000000000000, 0.0000000000000000000 ) ) ;
#144 = CONICAL_SURFACE ( 'NONE', #215, 1.499999999999998446, 0.2617993877991500740 ) ;
#145 = DIRECTION ( 'NONE',  ( 3.491481338843133355E-15, -1.224646799147353207E-16, 1.000000000000000000 ) ) ;
#146 = PLANE ( 'NONE',  #105 ) ;
#147 = FACE_OUTER_BOUND ( 'NONE', #141, .T. ) ;
#148 = PERSON ( 'UNSPECIFIED', 'UNSPECIFIED', 'UNSPECIFIED', ('UNSPECIFIED'), ('UNSPECIFIED'), ('UNSPECIFIED') ) ;
#149 = AXIS2_PLACEMENT_3D ( 'NONE', #5, #129, #181 ) ;
#150 = CARTESIAN_POINT ( 'NONE',  ( 4.873872858499418463E-14, -1.716706153110083080E-15, 13.95932667397365101 ) ) ;
#151 = CARTESIAN_POINT ( 'NONE',  ( 4.189777606611760026E-14, 0.9749999999999984235, 12.00000000000000000 ) ) ;
#152 = PERSON_AND_ORGANIZATION ( #148, #84 ) ;
#153 = PERSON_AND_ORGANIZATION_ROLE ( 'design_supplier' ) ;
#154 = PERSON_AND_ORGANIZATION ( #148, #84 ) ;
#155 = CC_DESIGN_PERSON_AND_ORGANIZATION_ASSIGNMENT ( #204, #186, ( #176 ) ) ;
#156 = COORDINATED_UNIVERSAL_TIME_OFFSET ( 1, 0, .AHEAD. ) ;
#157 = ORIENTED_EDGE ( 'NONE', *, *, #130, .T. ) ;
#158 = SHAPE_DEFINITION_REPRESENTATION ( #201, #15 ) ;
#159 = AXIS2_PLACEMENT_3D ( 'NONE', #124, #145, #97 ) ;
#160 = ADVANCED_FACE ( 'NONE', ( #168 ), #146, .F. ) ;
#161 = APPLICATION_CONTEXT ( 'configuration controlled 3d designs of mechanical parts and assemblies' ) ;
#162 = EDGE_LOOP ( 'NONE', ( #209 ) ) ;
#163 = DIRECTION ( 'NONE',  ( 0.0000000000000000000, 1.000000000000000000, 0.0000000000000000000 ) ) ;
#164 = CIRCLE ( 'NONE', #30, 0.9749999999999999778 ) ;
#165 = DIRECTION ( 'NONE',  ( -4.275831445896958607E-31, -1.000000000000000000, -1.224646799147353207E-16 ) ) ;
#166 = CARTESIAN_POINT ( 'NONE',  ( 1.316288464743861212E-13, -4.616918432785521081E-15, 37.69999999999999574 ) ) ;
#167 = DIRECTION ( 'NONE',  ( 3.491481338843133355E-15, -1.229791517316362731E-16, 1.000000000000000000 ) ) ;
#168 = FACE_OUTER_BOUND ( 'NONE', #162, .T. ) ;
#169 = EDGE_CURVE ( 'NONE', #222, #222, #25, .T. ) ;
#170 = CARTESIAN_POINT ( 'NONE',  ( 1.316288464743861212E-13, 1.499999999999995337, 37.69999999999999574 ) ) ;
#171 = CLOSED_SHELL ( 'NONE', ( #126, #74, #137 ) ) ;
#172 = APPROVAL_DATE_TIME ( #173, #120 ) ;
#173 = DATE_AND_TIME ( #101, #44 ) ;
#174 = MANIFOLD_SOLID_BREP ( 'Corps-Déplacer/Copier1[1]', #18 ) ;
#175 = CC_DESIGN_APPROVAL ( #110, ( #42 ) ) ;
#176 = PRODUCT ( '962944', '962944', '', ( #71 ) ) ;
#177 = CC_DESIGN_DATE_AND_TIME_ASSIGNMENT ( #22, #88, ( #93 ) ) ;
#178 = EDGE_LOOP ( 'NONE', ( #3 ) ) ;
#179 = ORIENTED_EDGE ( 'NONE', *, *, #55, .F. ) ;
#180 = EDGE_LOOP ( 'NONE', ( #91 ) ) ;
#181 = DIRECTION ( 'NONE',  ( 0.0000000000000000000, 1.000000000000000000, 0.0000000000000000000 ) ) ;
#182 = DIRECTION ( 'NONE',  ( -3.491481338843133355E-15, 1.229791517316362731E-16, -1.000000000000000000 ) ) ;
#183 = DIRECTION ( 'NONE',  ( 0.0000000000000000000, 1.000000000000000000, 0.0000000000000000000 ) ) ;
#184 = DIRECTION ( 'NONE',  ( -3.491481338843133355E-15, 1.224646799147353207E-16, -1.000000000000000000 ) ) ;
#185 = DIRECTION ( 'NONE',  ( -3.491481338843133355E-15, 1.224646799147353207E-16, -1.000000000000000000 ) ) ;
#186 = PERSON_AND_ORGANIZATION_ROLE ( 'design_owner' ) ;
#187 = CC_DESIGN_PERSON_AND_ORGANIZATION_ASSIGNMENT ( #154, #54, ( #118 ) ) ;
#188 = PERSON_AND_ORGANIZATION_ROLE ( 'creator' ) ;
#189 = APPROVAL_PERSON_ORGANIZATION ( #152, #110, #116 ) ;
#190 = DATE_AND_TIME ( #207, #60 ) ;
#191 = PERSON_AND_ORGANIZATION_ROLE ( 'classification_officer' ) ;
#192 = CONICAL_SURFACE ( 'NONE', #17, 1.199999999999999956, 0.7853981633974453924 ) ;
#193 = ADVANCED_FACE ( 'NONE', ( #24, #213 ), #75, .T. ) ;
#194 = CALENDAR_DATE ( 2021, 28, 10 ) ;
#195 = EDGE_LOOP ( 'NONE', ( #122 ) ) ;
#196 = FACE_OUTER_BOUND ( 'NONE', #208, .T. ) ;
#197 = FACE_OUTER_BOUND ( 'NONE', #89, .T. ) ;
#198 = DIRECTION ( 'NONE',  ( 0.0000000000000000000, 1.000000000000000000, 0.0000000000000000000 ) ) ;
#199 = CIRCLE ( 'NONE', #149, 0.9749999999999999778 ) ;
#200 = DIRECTION ( 'NONE',  ( -3.491481338843133355E-15, 1.229791517316362731E-16, -1.000000000000000000 ) ) ;
#201 = PRODUCT_DEFINITION_SHAPE ( 'NONE', 'NONE',  #42 ) ;
#202 = DIRECTION ( 'NONE',  ( 4.275831445896958607E-31, 1.000000000000000000, 1.224646799147353207E-16 ) ) ;
#203 = CIRCLE ( 'NONE', #12, 1.499999999999999778 ) ;
#204 = PERSON_AND_ORGANIZATION ( #148, #84 ) ;
#205 = VERTEX_POINT ( 'NONE', #151 ) ;
#206 = AXIS2_PLACEMENT_3D ( 'NONE', #143, #200, #67 ) ;
#207 = CALENDAR_DATE ( 2021, 28, 10 ) ;
#208 = EDGE_LOOP ( 'NONE', ( #39 ) ) ;
#209 = ORIENTED_EDGE ( 'NONE', *, *, #61, .T. ) ;
#210 = PERSON_AND_ORGANIZATION ( #148, #84 ) ;
#211 = CARTESIAN_POINT ( 'NONE',  ( 1.326762908760390423E-13, -4.653657836759941941E-15, 38.00000000000000000 ) ) ;
#212 = CARTESIAN_POINT ( 'NONE',  ( 1.906192921252232855E-15, -6.686024735685322183E-17, 0.5459553513993090634 ) ) ;
#213 = FACE_OUTER_BOUND ( 'NONE', #107, .T. ) ;
#214 = DIRECTION ( 'NONE',  ( -3.491481338843133355E-15, 1.224646799147353207E-16, -1.000000000000000000 ) ) ;
#215 = AXIS2_PLACEMENT_3D ( 'NONE', #76, #167, #62 ) ;
#216 = DIRECTION ( 'NONE',  ( 4.275831445896958607E-31, 1.000000000000000000, 1.224646799147353207E-16 ) ) ;
#217 = VERTEX_POINT ( 'NONE', #170 ) ;
#218 = COORDINATED_UNIVERSAL_TIME_OFFSET ( 1, 0, .AHEAD. ) ;
#219 = AXIS2_PLACEMENT_3D ( 'NONE', #150, #182, #163 ) ;
#220 = CALENDAR_DATE ( 2021, 28, 10 ) ;
#221 = UNCERTAINTY_MEASURE_WITH_UNIT (LENGTH_MEASURE( 1.000000000000000082E-05 ), #51, 'distance_accuracy_value', 'NONE');
#222 = VERTEX_POINT ( 'NONE', #16 ) ;
#223 = AXIS2_PLACEMENT_3D ( 'NONE', #29, #9, #202 ) ;
ENDSEC;
END-ISO-10303-21;
