ISO-10303-21;
HEADER;
FILE_DESCRIPTION (( 'STEP AP203' ),
    '1' );
FILE_NAME ('962943.step',
    '2021-10-28T09:23:16',
    ( '' ),
    ( '' ),
    'SwSTEP 2.0',
    'SolidWorks 2019',
    '' );
FILE_SCHEMA (( 'CONFIG_CONTROL_DESIGN' ));
ENDSEC;

DATA;
#1 = DIRECTION ( 'NONE',  ( 3.491481338843133355E-15, -1.229791517316362731E-16, 1.000000000000000000 ) ) ;
#2 = DATE_AND_TIME ( #162, #35 ) ;
#3 = CIRCLE ( 'NONE', #129, 0.9499999999999999556 ) ;
#4 = PERSON_AND_ORGANIZATION_ROLE ( 'design_owner' ) ;
#5 = LOCAL_TIME ( 11, 23, 16.00000000000000000, #185 ) ;
#6 = APPROVAL_DATE_TIME ( #2, #97 ) ;
#7 = APPROVAL ( #58, 'UNSPECIFIED' ) ;
#8 = CALENDAR_DATE ( 2021, 28, 10 ) ;
#9 = AXIS2_PLACEMENT_3D ( 'NONE', #171, #19, #193 ) ;
#10 = DATE_TIME_ROLE ( 'classification_date' ) ;
#11 = EDGE_LOOP ( 'NONE', ( #198 ) ) ;
#12 = EDGE_LOOP ( 'NONE', ( #166 ) ) ;
#13 = EDGE_CURVE ( 'NONE', #170, #170, #3, .T. ) ;
#14 = ORIENTED_EDGE ( 'NONE', *, *, #13, .T. ) ;
#15 = DIRECTION ( 'NONE',  ( 0.0000000000000000000, 1.000000000000000000, 0.0000000000000000000 ) ) ;
#16 = DIRECTION ( 'NONE',  ( 4.275831445896958607E-31, 1.000000000000000000, 1.224646799147353207E-16 ) ) ;
#17 = ADVANCED_FACE ( 'NONE', ( #136 ), #207, .F. ) ;
#18 = DIRECTION ( 'NONE',  ( -4.275831445896958607E-31, -1.000000000000000000, -1.224646799147353207E-16 ) ) ;
#19 = DIRECTION ( 'NONE',  ( -3.491481338843133355E-15, 1.224646799147353207E-16, -1.000000000000000000 ) ) ;
#20 = AXIS2_PLACEMENT_3D ( 'NONE', #53, #121, #122 ) ;
#21 = DIRECTION ( 'NONE',  ( -3.491481338843133355E-15, 1.224646799147353207E-16, -1.000000000000000000 ) ) ;
#22 = PERSON ( 'UNSPECIFIED', 'UNSPECIFIED', 'UNSPECIFIED', ('UNSPECIFIED'), ('UNSPECIFIED'), ('UNSPECIFIED') ) ;
#23 = CIRCLE ( 'NONE', #151, 1.199999999999999956 ) ;
#24 = PERSON_AND_ORGANIZATION ( #22, #42 ) ;
#25 = APPLICATION_PROTOCOL_DEFINITION ( 'international standard', 'config_control_design', 1994, #84 ) ;
#26 =( NAMED_UNIT ( * ) PLANE_ANGLE_UNIT ( ) SI_UNIT ( $, .RADIAN. ) );
#27 = CC_DESIGN_PERSON_AND_ORGANIZATION_ASSIGNMENT ( #142, #88, ( #116 ) ) ;
#28 = ORIENTED_EDGE ( 'NONE', *, *, #180, .F. ) ;
#29 = CARTESIAN_POINT ( 'NONE',  ( 4.189777606611760026E-14, -1.475749820779635178E-15, 12.00000000000000000 ) ) ;
#30 = APPROVAL_STATUS ( 'not_yet_approved' ) ;
#31 = APPROVAL ( #30, 'UNSPECIFIED' ) ;
#32 = AXIS2_PLACEMENT_3D ( 'NONE', #174, #157, #223 ) ;
#33 = PLANE ( 'NONE',  #103 ) ;
#34 = FACE_OUTER_BOUND ( 'NONE', #216, .T. ) ;
#35 = LOCAL_TIME ( 11, 23, 16.00000000000000000, #107 ) ;
#36 = CARTESIAN_POINT ( 'NONE',  ( 0.0000000000000000000, 0.0000000000000000000, 0.0000000000000000000 ) ) ;
#37 = DIRECTION ( 'NONE',  ( 4.275831445896958607E-31, 1.000000000000000000, 1.224646799147353207E-16 ) ) ;
#38 = FACE_OUTER_BOUND ( 'NONE', #128, .T. ) ;
#39 = CONICAL_SURFACE ( 'NONE', #195, 1.499999999999998446, 0.2617993877991501850 ) ;
#40 = APPROVAL_ROLE ( '' ) ;
#41 = APPROVAL_STATUS ( 'not_yet_approved' ) ;
#42 = ORGANIZATION ( 'UNSPECIFIED', 'UNSPECIFIED', '' ) ;
#43 = CC_DESIGN_PERSON_AND_ORGANIZATION_ASSIGNMENT ( #55, #75, ( #90 ) ) ;
#44 = ORIENTED_EDGE ( 'NONE', *, *, #180, .T. ) ;
#45 = COORDINATED_UNIVERSAL_TIME_OFFSET ( 1, 0, .AHEAD. ) ;
#46 = APPROVAL_ROLE ( '' ) ;
#47 = EDGE_CURVE ( 'NONE', #81, #81, #23, .T. ) ;
#48 = CIRCLE ( 'NONE', #175, 0.9499999999999999556 ) ;
#49 = CARTESIAN_POINT ( 'NONE',  ( 4.906448822875021336E-14, -1.728180264173437620E-15, 14.05262794416287164 ) ) ;
#50 = DIRECTION ( 'NONE',  ( 0.0000000000000000000, -1.000000000000000000, 0.0000000000000000000 ) ) ;
#51 = VERTEX_POINT ( 'NONE', #145 ) ;
#52 = DIRECTION ( 'NONE',  ( -5.135813185032644414E-31, -1.000000000000000000, -1.445602896647343601E-16 ) ) ;
#53 = CARTESIAN_POINT ( 'NONE',  ( 4.189777606611760026E-14, 1.124819836996388690E-32, 12.00000000000000000 ) ) ;
#54 = DATE_AND_TIME ( #8, #200 ) ;
#55 = PERSON_AND_ORGANIZATION ( #22, #42 ) ;
#56 = ADVANCED_FACE ( 'NONE', ( #205, #117 ), #190, .T. ) ;
#57 = APPLICATION_CONTEXT ( 'configuration controlled 3d designs of mechanical parts and assemblies' ) ;
#58 = APPROVAL_STATUS ( 'not_yet_approved' ) ;
#59 = SECURITY_CLASSIFICATION_LEVEL ( 'unclassified' ) ;
#60 = CC_DESIGN_DATE_AND_TIME_ASSIGNMENT ( #148, #10, ( #213 ) ) ;
#61 = ORIENTED_EDGE ( 'NONE', *, *, #47, .T. ) ;
#62 = ORIENTED_EDGE ( 'NONE', *, *, #187, .T. ) ;
#63 = AXIS2_PLACEMENT_3D ( 'NONE', #85, #69, #72 ) ;
#64 = PERSON_AND_ORGANIZATION ( #22, #42 ) ;
#65 = EDGE_LOOP ( 'NONE', ( #113 ) ) ;
#66 = CONICAL_SURFACE ( 'NONE', #86, 1.499999999999995559, 1.221730476396026388 ) ;
#67 = CARTESIAN_POINT ( 'NONE',  ( 1.326762908760390423E-13, 1.199999999999995293, 38.00000000000000000 ) ) ;
#68 = CARTESIAN_POINT ( 'NONE',  ( 1.326762908760390423E-13, -4.653657836759941941E-15, 38.00000000000000000 ) ) ;
#69 = DIRECTION ( 'NONE',  ( -3.491481338843133355E-15, 1.229791517316362731E-16, -1.000000000000000000 ) ) ;
#70 = ADVANCED_FACE ( 'NONE', ( #34, #208 ), #102, .T. ) ;
#71 = CARTESIAN_POINT ( 'NONE',  ( 1.326762908760390423E-13, 8.998558695971077224E-33, 38.00000000000000000 ) ) ;
#72 = DIRECTION ( 'NONE',  ( 0.0000000000000000000, 1.000000000000000000, 0.0000000000000000000 ) ) ;
#73 = PERSON_AND_ORGANIZATION ( #22, #42 ) ;
#74 = APPROVAL_ROLE ( '' ) ;
#75 = PERSON_AND_ORGANIZATION_ROLE ( 'creator' ) ;
#76 = DATE_TIME_ROLE ( 'creation_date' ) ;
#77 = ADVANCED_FACE ( 'NONE', ( #83, #156 ), #39, .T. ) ;
#78 = CLOSED_SHELL ( 'NONE', ( #126, #70, #183 ) ) ;
#79 = DIRECTION ( 'NONE',  ( -3.491481338843133355E-15, 1.229791517316362731E-16, -1.000000000000000000 ) ) ;
#80 = ORIENTED_EDGE ( 'NONE', *, *, #196, .F. ) ;
#81 = VERTEX_POINT ( 'NONE', #67 ) ;
#82 = DIRECTION ( 'NONE',  ( -3.491481338843133355E-15, 1.229791517316362731E-16, -1.000000000000000000 ) ) ;
#83 = FACE_BOUND ( 'NONE', #12, .T. ) ;
#84 = APPLICATION_CONTEXT ( 'configuration controlled 3d designs of mechanical parts and assemblies' ) ;
#85 = CARTESIAN_POINT ( 'NONE',  ( 4.189777606611760026E-14, -1.475749820779635178E-15, 12.00000000000000000 ) ) ;
#86 = AXIS2_PLACEMENT_3D ( 'NONE', #186, #118, #52 ) ;
#87 = FACE_OUTER_BOUND ( 'NONE', #149, .T. ) ;
#88 = PERSON_AND_ORGANIZATION_ROLE ( 'creator' ) ;
#89 =( NAMED_UNIT ( * ) SI_UNIT ( $, .STERADIAN. ) SOLID_ANGLE_UNIT ( ) );
#90 = PRODUCT_DEFINITION_FORMATION_WITH_SPECIFIED_SOURCE ( 'ANY', '', #150, .NOT_KNOWN. ) ;
#91 = DIRECTION ( 'NONE',  ( 1.000000000000000000, 0.0000000000000000000, 0.0000000000000000000 ) ) ;
#92 = APPLICATION_PROTOCOL_DEFINITION ( 'international standard', 'config_control_design', 1994, #57 ) ;
#93 = EDGE_CURVE ( 'NONE', #51, #51, #135, .T. ) ;
#94 =( GEOMETRIC_REPRESENTATION_CONTEXT ( 3 ) GLOBAL_UNCERTAINTY_ASSIGNED_CONTEXT ( ( #172 ) ) GLOBAL_UNIT_ASSIGNED_CONTEXT ( ( #144, #26, #89 ) ) REPRESENTATION_CONTEXT ( 'NONE', 'WORKASPACE' ) );
#95 = PERSON_AND_ORGANIZATION ( #22, #42 ) ;
#96 = EDGE_LOOP ( 'NONE', ( #44 ) ) ;
#97 = APPROVAL ( #41, 'UNSPECIFIED' ) ;
#98 = LOCAL_TIME ( 11, 23, 16.00000000000000000, #45 ) ;
#99 = EDGE_LOOP ( 'NONE', ( #28 ) ) ;
#100 = EDGE_LOOP ( 'NONE', ( #80 ) ) ;
#101 = CARTESIAN_POINT ( 'NONE',  ( 1.207255516793084424E-15, -4.234482332600715923E-17, 0.3457717225528967320 ) ) ;
#102 = CYLINDRICAL_SURFACE ( 'NONE', #161, 0.9499999999999999556 ) ;
#103 = AXIS2_PLACEMENT_3D ( 'NONE', #71, #155, #37 ) ;
#104 = DIRECTION ( 'NONE',  ( -3.491481338843133355E-15, 1.224646799147353207E-16, -1.000000000000000000 ) ) ;
#105 = DIRECTION ( 'NONE',  ( -3.491481338843133355E-15, 1.224646799147353207E-16, -1.000000000000000000 ) ) ;
#106 = CARTESIAN_POINT ( 'NONE',  ( 4.189777606611760026E-14, 0.9499999999999985123, 12.00000000000000000 ) ) ;
#107 = COORDINATED_UNIVERSAL_TIME_OFFSET ( 1, 0, .AHEAD. ) ;
#108 = CARTESIAN_POINT ( 'NONE',  ( 0.0000000000000000000, 0.0000000000000000000, 0.0000000000000000000 ) ) ;
#109 = VERTEX_POINT ( 'NONE', #211 ) ;
#110 = CC_DESIGN_DATE_AND_TIME_ASSIGNMENT ( #176, #76, ( #116 ) ) ;
#111 = AXIS2_PLACEMENT_3D ( 'NONE', #204, #21, #16 ) ;
#112 = DATE_AND_TIME ( #181, #5 ) ;
#113 = ORIENTED_EDGE ( 'NONE', *, *, #187, .F. ) ;
#114 = PERSON_AND_ORGANIZATION_ROLE ( 'classification_officer' ) ;
#115 = SHAPE_DEFINITION_REPRESENTATION ( #134, #152 ) ;
#116 = PRODUCT_DEFINITION ( 'UNKNOWN', '', #90, #220 ) ;
#117 = FACE_OUTER_BOUND ( 'NONE', #147, .T. ) ;
#118 = DIRECTION ( 'NONE',  ( 3.491481338843133355E-15, -1.224646799147353207E-16, 1.000000000000000000 ) ) ;
#119 = FACE_OUTER_BOUND ( 'NONE', #11, .T. ) ;
#120 = AXIS2_PLACEMENT_3D ( 'NONE', #140, #158, #18 ) ;
#121 = DIRECTION ( 'NONE',  ( 3.491481338843133355E-15, -1.224646799147353207E-16, 1.000000000000000000 ) ) ;
#122 = DIRECTION ( 'NONE',  ( -4.275831445896958607E-31, -1.000000000000000000, -1.224646799147353207E-16 ) ) ;
#123 = APPROVAL_DATE_TIME ( #54, #7 ) ;
#124 = LOCAL_TIME ( 11, 23, 16.00000000000000000, #125 ) ;
#125 = COORDINATED_UNIVERSAL_TIME_OFFSET ( 1, 0, .AHEAD. ) ;
#126 = ADVANCED_FACE ( 'NONE', ( #119 ), #154, .T. ) ;
#127 = CALENDAR_DATE ( 2021, 28, 10 ) ;
#128 = EDGE_LOOP ( 'NONE', ( #184 ) ) ;
#129 = AXIS2_PLACEMENT_3D ( 'NONE', #29, #79, #15 ) ;
#130 = AXIS2_PLACEMENT_3D ( 'NONE', #108, #163, #91 ) ;
#131 = ORIENTED_EDGE ( 'NONE', *, *, #93, .T. ) ;
#132 = CC_DESIGN_PERSON_AND_ORGANIZATION_ASSIGNMENT ( #209, #4, ( #150 ) ) ;
#133 = MANIFOLD_SOLID_BREP ( 'Corps-Déplacer/Copier1[1]', #199 ) ;
#134 = PRODUCT_DEFINITION_SHAPE ( 'NONE', 'NONE',  #116 ) ;
#135 = CIRCLE ( 'NONE', #63, 0.9499999999999999556 ) ;
#136 = FACE_OUTER_BOUND ( 'NONE', #201, .T. ) ;
#137 = DIRECTION ( 'NONE',  ( 4.293794133377662246E-31, 1.000000000000000000, 1.229791517316362731E-16 ) ) ;
#138 = FACE_OUTER_BOUND ( 'NONE', #65, .T. ) ;
#139 = APPROVAL_PERSON_ORGANIZATION ( #64, #31, #46 ) ;
#140 = CARTESIAN_POINT ( 'NONE',  ( 4.189777606611760026E-14, 1.124819836996388690E-32, 12.00000000000000000 ) ) ;
#141 = MECHANICAL_CONTEXT ( 'NONE', #84, 'mechanical' ) ;
#142 = PERSON_AND_ORGANIZATION ( #22, #42 ) ;
#143 = CONICAL_SURFACE ( 'NONE', #32, 1.199999999999999956, 0.7853981633974453924 ) ;
#144 =( LENGTH_UNIT ( ) NAMED_UNIT ( * ) SI_UNIT ( .MILLI., .METRE. ) );
#145 = CARTESIAN_POINT ( 'NONE',  ( 4.189777606611760026E-14, 0.9499999999999985123, 12.00000000000000000 ) ) ;
#146 = CIRCLE ( 'NONE', #9, 1.499999999999999778 ) ;
#147 = EDGE_LOOP ( 'NONE', ( #62 ) ) ;
#148 = DATE_AND_TIME ( #127, #98 ) ;
#149 = EDGE_LOOP ( 'NONE', ( #167 ) ) ;
#150 = PRODUCT ( '962943', '962943', '', ( #141 ) ) ;
#151 = AXIS2_PLACEMENT_3D ( 'NONE', #68, #104, #173 ) ;
#152 = ADVANCED_BREP_SHAPE_REPRESENTATION ( '962943', ( #133, #203, #130 ), #94 ) ;
#153 = CC_DESIGN_PERSON_AND_ORGANIZATION_ASSIGNMENT ( #95, #114, ( #213 ) ) ;
#154 = PLANE ( 'NONE',  #20 ) ;
#155 = DIRECTION ( 'NONE',  ( -3.491481338843133355E-15, 1.224646799147353207E-16, -1.000000000000000000 ) ) ;
#156 = FACE_OUTER_BOUND ( 'NONE', #96, .T. ) ;
#157 = DIRECTION ( 'NONE',  ( -3.491481338843133355E-15, 1.224646799147353207E-16, -1.000000000000000000 ) ) ;
#158 = DIRECTION ( 'NONE',  ( 3.491481338843133355E-15, -1.224646799147353207E-16, 1.000000000000000000 ) ) ;
#159 = VERTEX_POINT ( 'NONE', #179 ) ;
#160 = PERSON_AND_ORGANIZATION ( #22, #42 ) ;
#161 = AXIS2_PLACEMENT_3D ( 'NONE', #36, #82, #137 ) ;
#162 = CALENDAR_DATE ( 2021, 28, 10 ) ;
#163 = DIRECTION ( 'NONE',  ( 0.0000000000000000000, 0.0000000000000000000, 1.000000000000000000 ) ) ;
#164 = AXIS2_PLACEMENT_3D ( 'NONE', #221, #219, #191 ) ;
#165 = PRODUCT_RELATED_PRODUCT_CATEGORY ( 'detail', '', ( #150 ) ) ;
#166 = ORIENTED_EDGE ( 'NONE', *, *, #13, .F. ) ;
#167 = ORIENTED_EDGE ( 'NONE', *, *, #196, .T. ) ;
#168 = CC_DESIGN_APPROVAL ( #31, ( #213 ) ) ;
#169 = CC_DESIGN_PERSON_AND_ORGANIZATION_ASSIGNMENT ( #73, #212, ( #90 ) ) ;
#170 = VERTEX_POINT ( 'NONE', #106 ) ;
#171 = CARTESIAN_POINT ( 'NONE',  ( 1.316288464743861212E-13, -4.616918432785521081E-15, 37.69999999999999574 ) ) ;
#172 = UNCERTAINTY_MEASURE_WITH_UNIT (LENGTH_MEASURE( 1.000000000000000082E-05 ), #144, 'distance_accuracy_value', 'NONE');
#173 = DIRECTION ( 'NONE',  ( 0.0000000000000000000, 1.000000000000000000, 0.0000000000000000000 ) ) ;
#174 = CARTESIAN_POINT ( 'NONE',  ( 1.326762908760390423E-13, -4.653657836759941941E-15, 38.00000000000000000 ) ) ;
#175 = AXIS2_PLACEMENT_3D ( 'NONE', #101, #105, #218 ) ;
#176 = DATE_AND_TIME ( #194, #124 ) ;
#177 = VERTEX_POINT ( 'NONE', #197 ) ;
#178 = CIRCLE ( 'NONE', #164, 1.499999999999998446 ) ;
#179 = CARTESIAN_POINT ( 'NONE',  ( 1.207255516793084030E-15, -0.9499999999999999556, 0.3457717225528966210 ) ) ;
#180 = EDGE_CURVE ( 'NONE', #177, #177, #178, .T. ) ;
#181 = CALENDAR_DATE ( 2021, 28, 10 ) ;
#182 = CC_DESIGN_APPROVAL ( #97, ( #90 ) ) ;
#183 = ADVANCED_FACE ( 'NONE', ( #87 ), #66, .T. ) ;
#184 = ORIENTED_EDGE ( 'NONE', *, *, #47, .F. ) ;
#185 = COORDINATED_UNIVERSAL_TIME_OFFSET ( 1, 0, .AHEAD. ) ;
#186 = CARTESIAN_POINT ( 'NONE',  ( 1.906192921252232855E-15, -6.686024735685322183E-17, 0.5459553513993090634 ) ) ;
#187 = EDGE_CURVE ( 'NONE', #109, #109, #146, .T. ) ;
#188 = FACE_BOUND ( 'NONE', #215, .T. ) ;
#189 = APPROVAL_PERSON_ORGANIZATION ( #24, #97, #40 ) ;
#190 = CYLINDRICAL_SURFACE ( 'NONE', #111, 1.499999999999998224 ) ;
#191 = DIRECTION ( 'NONE',  ( 0.0000000000000000000, 1.000000000000000000, 0.0000000000000000000 ) ) ;
#192 = ADVANCED_FACE ( 'NONE', ( #38 ), #33, .F. ) ;
#193 = DIRECTION ( 'NONE',  ( 0.0000000000000000000, 1.000000000000000000, 0.0000000000000000000 ) ) ;
#194 = CALENDAR_DATE ( 2021, 28, 10 ) ;
#195 = AXIS2_PLACEMENT_3D ( 'NONE', #49, #1, #50 ) ;
#196 = EDGE_CURVE ( 'NONE', #159, #159, #48, .T. ) ;
#197 = CARTESIAN_POINT ( 'NONE',  ( 4.906448822875021336E-14, 1.499999999999996669, 14.05262794416287164 ) ) ;
#198 = ORIENTED_EDGE ( 'NONE', *, *, #93, .F. ) ;
#199 = CLOSED_SHELL ( 'NONE', ( #56, #202, #192, #77, #17 ) ) ;
#200 = LOCAL_TIME ( 11, 23, 16.00000000000000000, #210 ) ;
#201 = EDGE_LOOP ( 'NONE', ( #14 ) ) ;
#202 = ADVANCED_FACE ( 'NONE', ( #138, #188 ), #143, .T. ) ;
#203 = MANIFOLD_SOLID_BREP ( 'Corps-Déplacer/Copier1[2]', #78 ) ;
#204 = CARTESIAN_POINT ( 'NONE',  ( 0.0000000000000000000, 0.0000000000000000000, 0.0000000000000000000 ) ) ;
#205 = FACE_OUTER_BOUND ( 'NONE', #99, .T. ) ;
#206 = APPROVAL_PERSON_ORGANIZATION ( #160, #7, #74 ) ;
#207 = PLANE ( 'NONE',  #120 ) ;
#208 = FACE_OUTER_BOUND ( 'NONE', #100, .T. ) ;
#209 = PERSON_AND_ORGANIZATION ( #22, #42 ) ;
#210 = COORDINATED_UNIVERSAL_TIME_OFFSET ( 1, 0, .AHEAD. ) ;
#211 = CARTESIAN_POINT ( 'NONE',  ( 1.316288464743861212E-13, 1.499999999999995337, 37.69999999999999574 ) ) ;
#212 = PERSON_AND_ORGANIZATION_ROLE ( 'design_supplier' ) ;
#213 = SECURITY_CLASSIFICATION ( '', '', #59 ) ;
#214 = APPROVAL_DATE_TIME ( #112, #31 ) ;
#215 = EDGE_LOOP ( 'NONE', ( #61 ) ) ;
#216 = EDGE_LOOP ( 'NONE', ( #131 ) ) ;
#217 = CC_DESIGN_SECURITY_CLASSIFICATION ( #213, ( #90 ) ) ;
#218 = DIRECTION ( 'NONE',  ( -4.054589356604707566E-31, -1.000000000000000000, -1.141265444721583757E-16 ) ) ;
#219 = DIRECTION ( 'NONE',  ( -3.491481338843133355E-15, 1.229791517316362731E-16, -1.000000000000000000 ) ) ;
#220 = DESIGN_CONTEXT ( 'detailed design', #57, 'design' ) ;
#221 = CARTESIAN_POINT ( 'NONE',  ( 4.906448822875021336E-14, -1.728180264173437620E-15, 14.05262794416287164 ) ) ;
#222 = CC_DESIGN_APPROVAL ( #7, ( #116 ) ) ;
#223 = DIRECTION ( 'NONE',  ( 0.0000000000000000000, 1.000000000000000000, 0.0000000000000000000 ) ) ;
ENDSEC;
END-ISO-10303-21;
