ISO-10303-21;
HEADER;
FILE_DESCRIPTION (( 'STEP AP203' ),
    '1' );
FILE_NAME ('962942.step',
    '2021-10-28T09:23:15',
    ( '' ),
    ( '' ),
    'SwSTEP 2.0',
    'SolidWorks 2019',
    '' );
FILE_SCHEMA (( 'CONFIG_CONTROL_DESIGN' ));
ENDSEC;

DATA;
#1 = DIRECTION ( 'NONE',  ( -3.491481338843133355E-15, 1.224646799147353207E-16, -1.000000000000000000 ) ) ;
#2 = DIRECTION ( 'NONE',  ( -3.491481338843133355E-15, 1.229791517316362731E-16, -1.000000000000000000 ) ) ;
#3 = ADVANCED_FACE ( 'NONE', ( #160, #220 ), #68, .T. ) ;
#4 = DIRECTION ( 'NONE',  ( 0.0000000000000000000, 1.000000000000000000, 0.0000000000000000000 ) ) ;
#5 = CIRCLE ( 'NONE', #179, 0.9250000000000000444 ) ;
#6 = FACE_OUTER_BOUND ( 'NONE', #144, .T. ) ;
#7 = APPROVAL_STATUS ( 'not_yet_approved' ) ;
#8 = APPROVAL_DATE_TIME ( #216, #21 ) ;
#9 =( LENGTH_UNIT ( ) NAMED_UNIT ( * ) SI_UNIT ( .MILLI., .METRE. ) );
#10 = APPROVAL_PERSON_ORGANIZATION ( #113, #69, #79 ) ;
#11 =( NAMED_UNIT ( * ) SI_UNIT ( $, .STERADIAN. ) SOLID_ANGLE_UNIT ( ) );
#12 = LOCAL_TIME ( 11, 23, 15.00000000000000000, #97 ) ;
#13 = SHAPE_DEFINITION_REPRESENTATION ( #163, #16 ) ;
#14 = ORIENTED_EDGE ( 'NONE', *, *, #194, .T. ) ;
#15 = CALENDAR_DATE ( 2021, 28, 10 ) ;
#16 = ADVANCED_BREP_SHAPE_REPRESENTATION ( '962942', ( #143, #141, #38 ), #183 ) ;
#17 = PRODUCT ( '962942', '962942', '', ( #83 ) ) ;
#18 = DIRECTION ( 'NONE',  ( -3.491481338843133355E-15, 1.224646799147353207E-16, -1.000000000000000000 ) ) ;
#19 = AXIS2_PLACEMENT_3D ( 'NONE', #197, #40, #23 ) ;
#20 = AXIS2_PLACEMENT_3D ( 'NONE', #195, #199, #108 ) ;
#21 = APPROVAL ( #96, 'UNSPECIFIED' ) ;
#22 = CARTESIAN_POINT ( 'NONE',  ( 4.939024787250623578E-14, 1.499999999999996669, 14.14592921435209405 ) ) ;
#23 = DIRECTION ( 'NONE',  ( 4.293794133377661370E-31, 1.000000000000000000, 1.229791517316362731E-16 ) ) ;
#24 = FACE_OUTER_BOUND ( 'NONE', #71, .T. ) ;
#25 = CC_DESIGN_DATE_AND_TIME_ASSIGNMENT ( #138, #102, ( #151 ) ) ;
#26 = CONICAL_SURFACE ( 'NONE', #156, 1.199999999999999956, 0.7853981633974453924 ) ;
#27 = CARTESIAN_POINT ( 'NONE',  ( 0.0000000000000000000, 0.0000000000000000000, 0.0000000000000000000 ) ) ;
#28 = DIRECTION ( 'NONE',  ( 1.000000000000000000, 0.0000000000000000000, 0.0000000000000000000 ) ) ;
#29 = CARTESIAN_POINT ( 'NONE',  ( 1.326762908760390423E-13, 1.199999999999995293, 38.00000000000000000 ) ) ;
#30 = EDGE_CURVE ( 'NONE', #148, #148, #135, .T. ) ;
#31 = CC_DESIGN_PERSON_AND_ORGANIZATION_ASSIGNMENT ( #47, #136, ( #110 ) ) ;
#32 = ORIENTED_EDGE ( 'NONE', *, *, #114, .F. ) ;
#33 = EDGE_LOOP ( 'NONE', ( #193 ) ) ;
#34 = AXIS2_PLACEMENT_3D ( 'NONE', #180, #177, #74 ) ;
#35 = ORIENTED_EDGE ( 'NONE', *, *, #172, .T. ) ;
#36 = FACE_OUTER_BOUND ( 'NONE', #70, .T. ) ;
#37 = FACE_BOUND ( 'NONE', #142, .T. ) ;
#38 = AXIS2_PLACEMENT_3D ( 'NONE', #27, #134, #28 ) ;
#39 = PLANE ( 'NONE',  #120 ) ;
#40 = DIRECTION ( 'NONE',  ( -3.491481338843133355E-15, 1.229791517316362731E-16, -1.000000000000000000 ) ) ;
#41 = DATE_TIME_ROLE ( 'creation_date' ) ;
#42 = ADVANCED_FACE ( 'NONE', ( #129, #6 ), #150, .T. ) ;
#43 = APPROVAL_PERSON_ORGANIZATION ( #173, #118, #159 ) ;
#44 = PERSON_AND_ORGANIZATION ( #214, #109 ) ;
#45 = SECURITY_CLASSIFICATION_LEVEL ( 'unclassified' ) ;
#46 = APPLICATION_PROTOCOL_DEFINITION ( 'international standard', 'config_control_design', 1994, #167 ) ;
#47 = PERSON_AND_ORGANIZATION ( #214, #109 ) ;
#48 = CC_DESIGN_SECURITY_CLASSIFICATION ( #151, ( #201 ) ) ;
#49 = ADVANCED_FACE ( 'NONE', ( #76 ), #39, .F. ) ;
#50 = AXIS2_PLACEMENT_3D ( 'NONE', #208, #56, #181 ) ;
#51 = DIRECTION ( 'NONE',  ( 4.275831445896958607E-31, 1.000000000000000000, 1.224646799147353207E-16 ) ) ;
#52 = CALENDAR_DATE ( 2021, 28, 10 ) ;
#53 = ORIENTED_EDGE ( 'NONE', *, *, #72, .F. ) ;
#54 = EDGE_LOOP ( 'NONE', ( #204 ) ) ;
#55 = CONICAL_SURFACE ( 'NONE', #67, 1.499999999999995559, 1.221730476396026388 ) ;
#56 = DIRECTION ( 'NONE',  ( -3.491481338843133355E-15, 1.224646799147353207E-16, -1.000000000000000000 ) ) ;
#57 = FACE_OUTER_BOUND ( 'NONE', #88, .T. ) ;
#58 = CARTESIAN_POINT ( 'NONE',  ( 4.189777606611760026E-14, 0.9249999999999984901, 12.00000000000000000 ) ) ;
#59 = DIRECTION ( 'NONE',  ( 3.491481338843133355E-15, -1.224646799147353207E-16, 1.000000000000000000 ) ) ;
#60 = CC_DESIGN_PERSON_AND_ORGANIZATION_ASSIGNMENT ( #155, #66, ( #17 ) ) ;
#61 = DIRECTION ( 'NONE',  ( 3.491481338843133355E-15, -1.224646799147353207E-16, 1.000000000000000000 ) ) ;
#62 = CALENDAR_DATE ( 2021, 28, 10 ) ;
#63 = LOCAL_TIME ( 11, 23, 15.00000000000000000, #170 ) ;
#64 = CALENDAR_DATE ( 2021, 28, 10 ) ;
#65 = VERTEX_POINT ( 'NONE', #29 ) ;
#66 = PERSON_AND_ORGANIZATION_ROLE ( 'design_owner' ) ;
#67 = AXIS2_PLACEMENT_3D ( 'NONE', #211, #61, #73 ) ;
#68 = CYLINDRICAL_SURFACE ( 'NONE', #121, 1.499999999999998224 ) ;
#69 = APPROVAL ( #7, 'UNSPECIFIED' ) ;
#70 = EDGE_LOOP ( 'NONE', ( #53 ) ) ;
#71 = EDGE_LOOP ( 'NONE', ( #32 ) ) ;
#72 = EDGE_CURVE ( 'NONE', #93, #93, #153, .T. ) ;
#73 = DIRECTION ( 'NONE',  ( -5.135813185032644414E-31, -1.000000000000000000, -1.445602896647343601E-16 ) ) ;
#74 = DIRECTION ( 'NONE',  ( -4.275831445896958607E-31, -1.000000000000000000, -1.224646799147353207E-16 ) ) ;
#75 = DIRECTION ( 'NONE',  ( 0.0000000000000000000, 1.000000000000000000, 0.0000000000000000000 ) ) ;
#76 = FACE_OUTER_BOUND ( 'NONE', #205, .T. ) ;
#77 = CARTESIAN_POINT ( 'NONE',  ( 4.939024787250623578E-14, -1.739654375236792554E-15, 14.14592921435209405 ) ) ;
#78 = PERSON_AND_ORGANIZATION ( #214, #109 ) ;
#79 = APPROVAL_ROLE ( '' ) ;
#80 = AXIS2_PLACEMENT_3D ( 'NONE', #94, #2, #4 ) ;
#81 = AXIS2_PLACEMENT_3D ( 'NONE', #107, #18, #166 ) ;
#82 = CARTESIAN_POINT ( 'NONE',  ( 1.175485634772213351E-15, -0.9250000000000000444, 0.3366724666962414569 ) ) ;
#83 = MECHANICAL_CONTEXT ( 'NONE', #167, 'mechanical' ) ;
#84 = DESIGN_CONTEXT ( 'detailed design', #146, 'design' ) ;
#85 = LOCAL_TIME ( 11, 23, 15.00000000000000000, #218 ) ;
#86 = EDGE_LOOP ( 'NONE', ( #105 ) ) ;
#87 = ORIENTED_EDGE ( 'NONE', *, *, #172, .F. ) ;
#88 = EDGE_LOOP ( 'NONE', ( #14 ) ) ;
#89 = PRODUCT_RELATED_PRODUCT_CATEGORY ( 'detail', '', ( #17 ) ) ;
#90 = FACE_OUTER_BOUND ( 'NONE', #188, .T. ) ;
#91 = DIRECTION ( 'NONE',  ( -4.275831445896958607E-31, -1.000000000000000000, -1.224646799147353207E-16 ) ) ;
#92 = LOCAL_TIME ( 11, 23, 15.00000000000000000, #187 ) ;
#93 = VERTEX_POINT ( 'NONE', #165 ) ;
#94 = CARTESIAN_POINT ( 'NONE',  ( 4.189777606611760026E-14, -1.475749820779635178E-15, 12.00000000000000000 ) ) ;
#95 = CARTESIAN_POINT ( 'NONE',  ( 1.326762908760390423E-13, -4.653657836759941941E-15, 38.00000000000000000 ) ) ;
#96 = APPROVAL_STATUS ( 'not_yet_approved' ) ;
#97 = COORDINATED_UNIVERSAL_TIME_OFFSET ( 1, 0, .AHEAD. ) ;
#98 = PERSON_AND_ORGANIZATION ( #214, #109 ) ;
#99 = AXIS2_PLACEMENT_3D ( 'NONE', #210, #59, #91 ) ;
#100 = APPROVAL_ROLE ( '' ) ;
#101 = COORDINATED_UNIVERSAL_TIME_OFFSET ( 1, 0, .AHEAD. ) ;
#102 = DATE_TIME_ROLE ( 'classification_date' ) ;
#103 = APPROVAL_STATUS ( 'not_yet_approved' ) ;
#104 = CLOSED_SHELL ( 'NONE', ( #154, #42, #202 ) ) ;
#105 = ORIENTED_EDGE ( 'NONE', *, *, #157, .T. ) ;
#106 = DIRECTION ( 'NONE',  ( -3.491481338843133355E-15, 1.224646799147353207E-16, -1.000000000000000000 ) ) ;
#107 = CARTESIAN_POINT ( 'NONE',  ( 1.175485634772213745E-15, -4.123048587005960841E-17, 0.3366724666962415125 ) ) ;
#108 = DIRECTION ( 'NONE',  ( 0.0000000000000000000, -1.000000000000000000, 0.0000000000000000000 ) ) ;
#109 = ORGANIZATION ( 'UNSPECIFIED', 'UNSPECIFIED', '' ) ;
#110 = PRODUCT_DEFINITION ( 'UNKNOWN', '', #201, #84 ) ;
#111 = DIRECTION ( 'NONE',  ( 4.275831445896958607E-31, 1.000000000000000000, 1.224646799147353207E-16 ) ) ;
#112 = PLANE ( 'NONE',  #99 ) ;
#113 = PERSON_AND_ORGANIZATION ( #214, #109 ) ;
#114 = EDGE_CURVE ( 'NONE', #149, #149, #178, .T. ) ;
#115 = CALENDAR_DATE ( 2021, 28, 10 ) ;
#116 = VERTEX_POINT ( 'NONE', #82 ) ;
#117 = CARTESIAN_POINT ( 'NONE',  ( 4.189777606611760026E-14, 0.9249999999999984901, 12.00000000000000000 ) ) ;
#118 = APPROVAL ( #103, 'UNSPECIFIED' ) ;
#119 = UNCERTAINTY_MEASURE_WITH_UNIT (LENGTH_MEASURE( 1.000000000000000082E-05 ), #9, 'distance_accuracy_value', 'NONE');
#120 = AXIS2_PLACEMENT_3D ( 'NONE', #126, #145, #111 ) ;
#121 = AXIS2_PLACEMENT_3D ( 'NONE', #139, #203, #51 ) ;
#122 = DATE_AND_TIME ( #15, #92 ) ;
#123 = ORIENTED_EDGE ( 'NONE', *, *, #157, .F. ) ;
#124 = CC_DESIGN_DATE_AND_TIME_ASSIGNMENT ( #212, #41, ( #110 ) ) ;
#125 = DIRECTION ( 'NONE',  ( -3.491481338843133355E-15, 1.229791517316362731E-16, -1.000000000000000000 ) ) ;
#126 = CARTESIAN_POINT ( 'NONE',  ( 1.326762908760390423E-13, 8.998558695971077224E-33, 38.00000000000000000 ) ) ;
#127 = DIRECTION ( 'NONE',  ( -3.491481338843133355E-15, 1.229791517316362731E-16, -1.000000000000000000 ) ) ;
#128 = AXIS2_PLACEMENT_3D ( 'NONE', #198, #106, #196 ) ;
#129 = FACE_OUTER_BOUND ( 'NONE', #137, .T. ) ;
#130 = FACE_OUTER_BOUND ( 'NONE', #161, .T. ) ;
#131 = DATE_AND_TIME ( #62, #12 ) ;
#132 = APPROVAL_PERSON_ORGANIZATION ( #78, #21, #100 ) ;
#133 = PERSON_AND_ORGANIZATION_ROLE ( 'design_supplier' ) ;
#134 = DIRECTION ( 'NONE',  ( 0.0000000000000000000, 0.0000000000000000000, 1.000000000000000000 ) ) ;
#135 = CIRCLE ( 'NONE', #192, 1.499999999999998446 ) ;
#136 = PERSON_AND_ORGANIZATION_ROLE ( 'creator' ) ;
#137 = EDGE_LOOP ( 'NONE', ( #175 ) ) ;
#138 = DATE_AND_TIME ( #52, #190 ) ;
#139 = CARTESIAN_POINT ( 'NONE',  ( 0.0000000000000000000, 0.0000000000000000000, 0.0000000000000000000 ) ) ;
#140 = CIRCLE ( 'NONE', #81, 0.9250000000000000444 ) ;
#141 = MANIFOLD_SOLID_BREP ( 'Corps-Déplacer/Copier1[2]', #104 ) ;
#142 = EDGE_LOOP ( 'NONE', ( #87 ) ) ;
#143 = MANIFOLD_SOLID_BREP ( 'Corps-Déplacer/Copier1[1]', #189 ) ;
#144 = EDGE_LOOP ( 'NONE', ( #222 ) ) ;
#145 = DIRECTION ( 'NONE',  ( -3.491481338843133355E-15, 1.224646799147353207E-16, -1.000000000000000000 ) ) ;
#146 = APPLICATION_CONTEXT ( 'configuration controlled 3d designs of mechanical parts and assemblies' ) ;
#147 = CC_DESIGN_APPROVAL ( #69, ( #201 ) ) ;
#148 = VERTEX_POINT ( 'NONE', #22 ) ;
#149 = VERTEX_POINT ( 'NONE', #58 ) ;
#150 = CYLINDRICAL_SURFACE ( 'NONE', #19, 0.9250000000000000444 ) ;
#151 = SECURITY_CLASSIFICATION ( '', '', #45 ) ;
#152 = APPLICATION_PROTOCOL_DEFINITION ( 'international standard', 'config_control_design', 1994, #146 ) ;
#153 = CIRCLE ( 'NONE', #50, 1.499999999999999778 ) ;
#154 = ADVANCED_FACE ( 'NONE', ( #24 ), #112, .T. ) ;
#155 = PERSON_AND_ORGANIZATION ( #214, #109 ) ;
#156 = AXIS2_PLACEMENT_3D ( 'NONE', #95, #1, #176 ) ;
#157 = EDGE_CURVE ( 'NONE', #65, #65, #223, .T. ) ;
#158 = ORIENTED_EDGE ( 'NONE', *, *, #30, .T. ) ;
#159 = APPROVAL_ROLE ( '' ) ;
#160 = FACE_OUTER_BOUND ( 'NONE', #33, .T. ) ;
#161 = EDGE_LOOP ( 'NONE', ( #158 ) ) ;
#162 = PLANE ( 'NONE',  #34 ) ;
#163 = PRODUCT_DEFINITION_SHAPE ( 'NONE', 'NONE',  #110 ) ;
#164 = CARTESIAN_POINT ( 'NONE',  ( 4.189777606611760026E-14, -1.475749820779635178E-15, 12.00000000000000000 ) ) ;
#165 = CARTESIAN_POINT ( 'NONE',  ( 1.316288464743861212E-13, 1.499999999999995337, 37.69999999999999574 ) ) ;
#166 = DIRECTION ( 'NONE',  ( -4.164172852729158436E-31, -1.000000000000000000, -1.172110456741085828E-16 ) ) ;
#167 = APPLICATION_CONTEXT ( 'configuration controlled 3d designs of mechanical parts and assemblies' ) ;
#168 = ADVANCED_FACE ( 'NONE', ( #36, #182 ), #26, .T. ) ;
#169 =( NAMED_UNIT ( * ) PLANE_ANGLE_UNIT ( ) SI_UNIT ( $, .RADIAN. ) );
#170 = COORDINATED_UNIVERSAL_TIME_OFFSET ( 1, 0, .AHEAD. ) ;
#171 = PERSON_AND_ORGANIZATION_ROLE ( 'classification_officer' ) ;
#172 = EDGE_CURVE ( 'NONE', #185, #185, #5, .T. ) ;
#173 = PERSON_AND_ORGANIZATION ( #214, #109 ) ;
#174 = CC_DESIGN_APPROVAL ( #118, ( #151 ) ) ;
#175 = ORIENTED_EDGE ( 'NONE', *, *, #114, .T. ) ;
#176 = DIRECTION ( 'NONE',  ( 0.0000000000000000000, 1.000000000000000000, 0.0000000000000000000 ) ) ;
#177 = DIRECTION ( 'NONE',  ( 3.491481338843133355E-15, -1.224646799147353207E-16, 1.000000000000000000 ) ) ;
#178 = CIRCLE ( 'NONE', #80, 0.9250000000000000444 ) ;
#179 = AXIS2_PLACEMENT_3D ( 'NONE', #164, #125, #207 ) ;
#180 = CARTESIAN_POINT ( 'NONE',  ( 4.189777606611760026E-14, 1.124819836996388690E-32, 12.00000000000000000 ) ) ;
#181 = DIRECTION ( 'NONE',  ( 0.0000000000000000000, 1.000000000000000000, 0.0000000000000000000 ) ) ;
#182 = FACE_BOUND ( 'NONE', #86, .T. ) ;
#183 =( GEOMETRIC_REPRESENTATION_CONTEXT ( 3 ) GLOBAL_UNCERTAINTY_ASSIGNED_CONTEXT ( ( #119 ) ) GLOBAL_UNIT_ASSIGNED_CONTEXT ( ( #9, #169, #11 ) ) REPRESENTATION_CONTEXT ( 'NONE', 'WORKASPACE' ) );
#184 = PERSON_AND_ORGANIZATION_ROLE ( 'creator' ) ;
#185 = VERTEX_POINT ( 'NONE', #117 ) ;
#186 = CC_DESIGN_PERSON_AND_ORGANIZATION_ASSIGNMENT ( #215, #133, ( #201 ) ) ;
#187 = COORDINATED_UNIVERSAL_TIME_OFFSET ( 1, 0, .AHEAD. ) ;
#188 = EDGE_LOOP ( 'NONE', ( #35 ) ) ;
#189 = CLOSED_SHELL ( 'NONE', ( #3, #168, #49, #213, #217 ) ) ;
#190 = LOCAL_TIME ( 11, 23, 15.00000000000000000, #101 ) ;
#191 = CC_DESIGN_PERSON_AND_ORGANIZATION_ASSIGNMENT ( #98, #171, ( #151 ) ) ;
#192 = AXIS2_PLACEMENT_3D ( 'NONE', #77, #127, #75 ) ;
#193 = ORIENTED_EDGE ( 'NONE', *, *, #30, .F. ) ;
#194 = EDGE_CURVE ( 'NONE', #116, #116, #140, .T. ) ;
#195 = CARTESIAN_POINT ( 'NONE',  ( 4.939024787250623578E-14, -1.739654375236792554E-15, 14.14592921435209405 ) ) ;
#196 = DIRECTION ( 'NONE',  ( 0.0000000000000000000, 1.000000000000000000, 0.0000000000000000000 ) ) ;
#197 = CARTESIAN_POINT ( 'NONE',  ( 0.0000000000000000000, 0.0000000000000000000, 0.0000000000000000000 ) ) ;
#198 = CARTESIAN_POINT ( 'NONE',  ( 1.326762908760390423E-13, -4.653657836759941941E-15, 38.00000000000000000 ) ) ;
#199 = DIRECTION ( 'NONE',  ( 3.491481338843133355E-15, -1.229791517316362731E-16, 1.000000000000000000 ) ) ;
#200 = APPROVAL_DATE_TIME ( #131, #69 ) ;
#201 = PRODUCT_DEFINITION_FORMATION_WITH_SPECIFIED_SOURCE ( 'ANY', '', #17, .NOT_KNOWN. ) ;
#202 = ADVANCED_FACE ( 'NONE', ( #57 ), #55, .T. ) ;
#203 = DIRECTION ( 'NONE',  ( -3.491481338843133355E-15, 1.224646799147353207E-16, -1.000000000000000000 ) ) ;
#204 = ORIENTED_EDGE ( 'NONE', *, *, #72, .T. ) ;
#205 = EDGE_LOOP ( 'NONE', ( #123 ) ) ;
#206 = CC_DESIGN_APPROVAL ( #21, ( #110 ) ) ;
#207 = DIRECTION ( 'NONE',  ( 0.0000000000000000000, 1.000000000000000000, 0.0000000000000000000 ) ) ;
#208 = CARTESIAN_POINT ( 'NONE',  ( 1.316288464743861212E-13, -4.616918432785521081E-15, 37.69999999999999574 ) ) ;
#209 = CC_DESIGN_PERSON_AND_ORGANIZATION_ASSIGNMENT ( #44, #184, ( #201 ) ) ;
#210 = CARTESIAN_POINT ( 'NONE',  ( 4.189777606611760026E-14, 1.124819836996388690E-32, 12.00000000000000000 ) ) ;
#211 = CARTESIAN_POINT ( 'NONE',  ( 1.906192921252232855E-15, -6.686024735685322183E-17, 0.5459553513993090634 ) ) ;
#212 = DATE_AND_TIME ( #64, #63 ) ;
#213 = ADVANCED_FACE ( 'NONE', ( #37, #130 ), #219, .T. ) ;
#214 = PERSON ( 'UNSPECIFIED', 'UNSPECIFIED', 'UNSPECIFIED', ('UNSPECIFIED'), ('UNSPECIFIED'), ('UNSPECIFIED') ) ;
#215 = PERSON_AND_ORGANIZATION ( #214, #109 ) ;
#216 = DATE_AND_TIME ( #115, #85 ) ;
#217 = ADVANCED_FACE ( 'NONE', ( #90 ), #162, .F. ) ;
#218 = COORDINATED_UNIVERSAL_TIME_OFFSET ( 1, 0, .AHEAD. ) ;
#219 = CONICAL_SURFACE ( 'NONE', #20, 1.499999999999998446, 0.2617993877991501295 ) ;
#220 = FACE_OUTER_BOUND ( 'NONE', #54, .T. ) ;
#221 = APPROVAL_DATE_TIME ( #122, #118 ) ;
#222 = ORIENTED_EDGE ( 'NONE', *, *, #194, .F. ) ;
#223 = CIRCLE ( 'NONE', #128, 1.199999999999999956 ) ;
ENDSEC;
END-ISO-10303-21;
