ISO-10303-21;
HEADER;
FILE_DESCRIPTION (( 'STEP AP203' ),
    '1' );
FILE_NAME ('962941.step',
    '2021-10-28T09:23:14',
    ( '' ),
    ( '' ),
    'SwSTEP 2.0',
    'SolidWorks 2019',
    '' );
FILE_SCHEMA (( 'CONFIG_CONTROL_DESIGN' ));
ENDSEC;

DATA;
#1 = CARTESIAN_POINT ( 'NONE',  ( 0.0000000000000000000, 0.0000000000000000000, 0.0000000000000000000 ) ) ;
#2 = APPLICATION_CONTEXT ( 'configuration controlled 3d designs of mechanical parts and assemblies' ) ;
#3 = DATE_TIME_ROLE ( 'classification_date' ) ;
#4 = ORIENTED_EDGE ( 'NONE', *, *, #87, .F. ) ;
#5 = FACE_OUTER_BOUND ( 'NONE', #121, .T. ) ;
#6 = DIRECTION ( 'NONE',  ( -3.491481338843133355E-15, 1.224646799147353207E-16, -1.000000000000000000 ) ) ;
#7 = CIRCLE ( 'NONE', #130, 1.499999999999999778 ) ;
#8 = CARTESIAN_POINT ( 'NONE',  ( 0.0000000000000000000, 0.0000000000000000000, 0.0000000000000000000 ) ) ;
#9 = FACE_OUTER_BOUND ( 'NONE', #155, .T. ) ;
#10 = FACE_OUTER_BOUND ( 'NONE', #38, .T. ) ;
#11 = LOCAL_TIME ( 11, 23, 14.00000000000000000, #55 ) ;
#12 = APPROVAL_ROLE ( '' ) ;
#13 = CARTESIAN_POINT ( 'NONE',  ( 4.189777606611760026E-14, 0.8999999999999984679, 12.00000000000000000 ) ) ;
#14 = PERSON ( 'UNSPECIFIED', 'UNSPECIFIED', 'UNSPECIFIED', ('UNSPECIFIED'), ('UNSPECIFIED'), ('UNSPECIFIED') ) ;
#15 = APPROVAL_PERSON_ORGANIZATION ( #78, #218, #12 ) ;
#16 = ADVANCED_FACE ( 'NONE', ( #19, #5 ), #161, .T. ) ;
#17 = SHAPE_DEFINITION_REPRESENTATION ( #120, #48 ) ;
#18 = EDGE_LOOP ( 'NONE', ( #4 ) ) ;
#19 = FACE_BOUND ( 'NONE', #208, .T. ) ;
#20 = PRODUCT_RELATED_PRODUCT_CATEGORY ( 'detail', '', ( #178 ) ) ;
#21 = DIRECTION ( 'NONE',  ( -3.491481338843133355E-15, 1.224646799147353207E-16, -1.000000000000000000 ) ) ;
#22 = FACE_OUTER_BOUND ( 'NONE', #195, .T. ) ;
#23 = EDGE_CURVE ( 'NONE', #198, #198, #83, .T. ) ;
#24 = DIRECTION ( 'NONE',  ( 0.0000000000000000000, 1.000000000000000000, 0.0000000000000000000 ) ) ;
#25 = DIRECTION ( 'NONE',  ( 0.0000000000000000000, 1.000000000000000000, 0.0000000000000000000 ) ) ;
#26 = CARTESIAN_POINT ( 'NONE',  ( 4.971600751626227082E-14, -1.751128486300147094E-15, 14.23923048454131468 ) ) ;
#27 = AXIS2_PLACEMENT_3D ( 'NONE', #145, #217, #24 ) ;
#28 = APPROVAL_DATE_TIME ( #187, #125 ) ;
#29 = CONICAL_SURFACE ( 'NONE', #146, 1.499999999999995559, 1.221730476396026388 ) ;
#30 = PERSON_AND_ORGANIZATION_ROLE ( 'design_owner' ) ;
#31 =( NAMED_UNIT ( * ) PLANE_ANGLE_UNIT ( ) SI_UNIT ( $, .RADIAN. ) );
#32 = CC_DESIGN_APPROVAL ( #125, ( #192 ) ) ;
#33 = CARTESIAN_POINT ( 'NONE',  ( 1.143715752751342671E-15, -0.9000000000000000222, 0.3275732108395862374 ) ) ;
#34 = ADVANCED_FACE ( 'NONE', ( #219 ), #185, .F. ) ;
#35 = ORGANIZATION ( 'UNSPECIFIED', 'UNSPECIFIED', '' ) ;
#36 = EDGE_LOOP ( 'NONE', ( #135 ) ) ;
#37 = PERSON_AND_ORGANIZATION_ROLE ( 'classification_officer' ) ;
#38 = EDGE_LOOP ( 'NONE', ( #86 ) ) ;
#39 = DIRECTION ( 'NONE',  ( -3.491481338843133355E-15, 1.224646799147353207E-16, -1.000000000000000000 ) ) ;
#40 = PLANE ( 'NONE',  #222 ) ;
#41 = DIRECTION ( 'NONE',  ( 3.491481338843133355E-15, -1.224646799147353207E-16, 1.000000000000000000 ) ) ;
#42 = DIRECTION ( 'NONE',  ( -3.491481338843133355E-15, 1.224646799147353207E-16, -1.000000000000000000 ) ) ;
#43 = PLANE ( 'NONE',  #153 ) ;
#44 = CC_DESIGN_DATE_AND_TIME_ASSIGNMENT ( #157, #3, ( #115 ) ) ;
#45 = APPROVAL_ROLE ( '' ) ;
#46 = AXIS2_PLACEMENT_3D ( 'NONE', #91, #42, #166 ) ;
#47 = COORDINATED_UNIVERSAL_TIME_OFFSET ( 1, 0, .AHEAD. ) ;
#48 = ADVANCED_BREP_SHAPE_REPRESENTATION ( '962941', ( #202, #57, #113 ), #173 ) ;
#49 = DIRECTION ( 'NONE',  ( 0.0000000000000000000, 0.0000000000000000000, 1.000000000000000000 ) ) ;
#50 = EDGE_CURVE ( 'NONE', #149, #149, #62, .T. ) ;
#51 = VERTEX_POINT ( 'NONE', #13 ) ;
#52 = VERTEX_POINT ( 'NONE', #133 ) ;
#53 = CC_DESIGN_APPROVAL ( #218, ( #164 ) ) ;
#54 = EDGE_LOOP ( 'NONE', ( #118 ) ) ;
#55 = COORDINATED_UNIVERSAL_TIME_OFFSET ( 1, 0, .AHEAD. ) ;
#56 = EDGE_LOOP ( 'NONE', ( #138 ) ) ;
#57 = MANIFOLD_SOLID_BREP ( 'Corps-Déplacer/Copier1[2]', #180 ) ;
#58 = DIRECTION ( 'NONE',  ( -5.135813185032644414E-31, -1.000000000000000000, -1.445602896647343601E-16 ) ) ;
#59 = DIRECTION ( 'NONE',  ( 4.293794133377662246E-31, 1.000000000000000000, 1.229791517316362731E-16 ) ) ;
#60 = DIRECTION ( 'NONE',  ( -4.275831445896958607E-31, -1.000000000000000000, -1.224646799147353207E-16 ) ) ;
#61 = CARTESIAN_POINT ( 'NONE',  ( 1.326762908760390423E-13, 8.998558695971077224E-33, 38.00000000000000000 ) ) ;
#62 = CIRCLE ( 'NONE', #172, 1.199999999999999956 ) ;
#63 =( LENGTH_UNIT ( ) NAMED_UNIT ( * ) SI_UNIT ( .MILLI., .METRE. ) );
#64 = PERSON_AND_ORGANIZATION_ROLE ( 'creator' ) ;
#65 = PERSON_AND_ORGANIZATION ( #14, #35 ) ;
#66 = ORIENTED_EDGE ( 'NONE', *, *, #23, .T. ) ;
#67 = PERSON_AND_ORGANIZATION ( #14, #35 ) ;
#68 = APPROVAL_PERSON_ORGANIZATION ( #188, #125, #45 ) ;
#69 = CARTESIAN_POINT ( 'NONE',  ( 4.971600751626227082E-14, -1.751128486300147094E-15, 14.23923048454131468 ) ) ;
#70 = DIRECTION ( 'NONE',  ( 0.0000000000000000000, -1.000000000000000000, 0.0000000000000000000 ) ) ;
#71 = CC_DESIGN_PERSON_AND_ORGANIZATION_ASSIGNMENT ( #80, #204, ( #164 ) ) ;
#72 = DIRECTION ( 'NONE',  ( 0.0000000000000000000, 1.000000000000000000, 0.0000000000000000000 ) ) ;
#73 = DIRECTION ( 'NONE',  ( -3.491481338843133355E-15, 1.229791517316362731E-16, -1.000000000000000000 ) ) ;
#74 = CARTESIAN_POINT ( 'NONE',  ( 1.326762908760390423E-13, -4.653657836759941941E-15, 38.00000000000000000 ) ) ;
#75 = FACE_OUTER_BOUND ( 'NONE', #36, .T. ) ;
#76 = ADVANCED_FACE ( 'NONE', ( #75, #139 ), #214, .T. ) ;
#77 = PERSON_AND_ORGANIZATION ( #14, #35 ) ;
#78 = PERSON_AND_ORGANIZATION ( #14, #35 ) ;
#79 = DATE_TIME_ROLE ( 'creation_date' ) ;
#80 = PERSON_AND_ORGANIZATION ( #14, #35 ) ;
#81 = CC_DESIGN_DATE_AND_TIME_ASSIGNMENT ( #95, #79, ( #192 ) ) ;
#82 = AXIS2_PLACEMENT_3D ( 'NONE', #74, #6, #72 ) ;
#83 = CIRCLE ( 'NONE', #27, 0.9000000000000000222 ) ;
#84 = AXIS2_PLACEMENT_3D ( 'NONE', #8, #143, #59 ) ;
#85 = ORIENTED_EDGE ( 'NONE', *, *, #23, .F. ) ;
#86 = ORIENTED_EDGE ( 'NONE', *, *, #151, .F. ) ;
#87 = EDGE_CURVE ( 'NONE', #51, #51, #213, .T. ) ;
#88 = ORIENTED_EDGE ( 'NONE', *, *, #87, .T. ) ;
#89 = CIRCLE ( 'NONE', #111, 0.9000000000000000222 ) ;
#90 = EDGE_LOOP ( 'NONE', ( #119 ) ) ;
#91 = CARTESIAN_POINT ( 'NONE',  ( 0.0000000000000000000, 0.0000000000000000000, 0.0000000000000000000 ) ) ;
#92 = DIRECTION ( 'NONE',  ( -3.491481338843133355E-15, 1.229791517316362731E-16, -1.000000000000000000 ) ) ;
#93 = DIRECTION ( 'NONE',  ( -4.279844320860524021E-31, -1.000000000000000000, -1.204669080539449344E-16 ) ) ;
#94 = DIRECTION ( 'NONE',  ( 3.491481338843133355E-15, -1.229791517316362731E-16, 1.000000000000000000 ) ) ;
#95 = DATE_AND_TIME ( #97, #168 ) ;
#96 = COORDINATED_UNIVERSAL_TIME_OFFSET ( 1, 0, .AHEAD. ) ;
#97 = CALENDAR_DATE ( 2021, 28, 10 ) ;
#98 = CLOSED_SHELL ( 'NONE', ( #193, #76, #34, #16, #175 ) ) ;
#99 = CC_DESIGN_PERSON_AND_ORGANIZATION_ASSIGNMENT ( #190, #37, ( #115 ) ) ;
#100 = EDGE_LOOP ( 'NONE', ( #88 ) ) ;
#101 = CALENDAR_DATE ( 2021, 28, 10 ) ;
#102 = ORIENTED_EDGE ( 'NONE', *, *, #50, .T. ) ;
#103 = DIRECTION ( 'NONE',  ( 3.491481338843133355E-15, -1.224646799147353207E-16, 1.000000000000000000 ) ) ;
#104 = CARTESIAN_POINT ( 'NONE',  ( 1.326762908760390423E-13, -4.653657836759941941E-15, 38.00000000000000000 ) ) ;
#105 = CARTESIAN_POINT ( 'NONE',  ( 1.906192921252232855E-15, -6.686024735685322183E-17, 0.5459553513993090634 ) ) ;
#106 = ADVANCED_FACE ( 'NONE', ( #199 ), #43, .T. ) ;
#107 = CARTESIAN_POINT ( 'NONE',  ( 1.316288464743861212E-13, -4.616918432785521081E-15, 37.69999999999999574 ) ) ;
#108 = DIRECTION ( 'NONE',  ( -3.491481338843133355E-15, 1.224646799147353207E-16, -1.000000000000000000 ) ) ;
#109 = UNCERTAINTY_MEASURE_WITH_UNIT (LENGTH_MEASURE( 1.000000000000000082E-05 ), #63, 'distance_accuracy_value', 'NONE');
#110 = CALENDAR_DATE ( 2021, 28, 10 ) ;
#111 = AXIS2_PLACEMENT_3D ( 'NONE', #127, #108, #93 ) ;
#112 = CC_DESIGN_PERSON_AND_ORGANIZATION_ASSIGNMENT ( #65, #64, ( #192 ) ) ;
#113 = AXIS2_PLACEMENT_3D ( 'NONE', #1, #49, #220 ) ;
#114 = CARTESIAN_POINT ( 'NONE',  ( 1.326762908760390423E-13, 1.199999999999995293, 38.00000000000000000 ) ) ;
#115 = SECURITY_CLASSIFICATION ( '', '', #132 ) ;
#116 = CC_DESIGN_PERSON_AND_ORGANIZATION_ASSIGNMENT ( #150, #223, ( #164 ) ) ;
#117 = CALENDAR_DATE ( 2021, 28, 10 ) ;
#118 = ORIENTED_EDGE ( 'NONE', *, *, #50, .F. ) ;
#119 = ORIENTED_EDGE ( 'NONE', *, *, #151, .T. ) ;
#120 = PRODUCT_DEFINITION_SHAPE ( 'NONE', 'NONE',  #192 ) ;
#121 = EDGE_LOOP ( 'NONE', ( #158 ) ) ;
#122 = DIRECTION ( 'NONE',  ( 4.275831445896958607E-31, 1.000000000000000000, 1.224646799147353207E-16 ) ) ;
#123 = DIRECTION ( 'NONE',  ( 0.0000000000000000000, 1.000000000000000000, 0.0000000000000000000 ) ) ;
#124 = FACE_OUTER_BOUND ( 'NONE', #56, .T. ) ;
#125 = APPROVAL ( #152, 'UNSPECIFIED' ) ;
#126 = CYLINDRICAL_SURFACE ( 'NONE', #46, 1.499999999999998224 ) ;
#127 = CARTESIAN_POINT ( 'NONE',  ( 1.143715752751343066E-15, -4.011614841411204526E-17, 0.3275732108395863484 ) ) ;
#128 = COORDINATED_UNIVERSAL_TIME_OFFSET ( 1, 0, .AHEAD. ) ;
#129 = MECHANICAL_CONTEXT ( 'NONE', #154, 'mechanical' ) ;
#130 = AXIS2_PLACEMENT_3D ( 'NONE', #107, #21, #25 ) ;
#131 = APPROVAL_DATE_TIME ( #221, #218 ) ;
#132 = SECURITY_CLASSIFICATION_LEVEL ( 'unclassified' ) ;
#133 = CARTESIAN_POINT ( 'NONE',  ( 4.971600751626227082E-14, 1.499999999999996669, 14.23923048454131468 ) ) ;
#134 = LOCAL_TIME ( 11, 23, 14.00000000000000000, #136 ) ;
#135 = ORIENTED_EDGE ( 'NONE', *, *, #167, .F. ) ;
#136 = COORDINATED_UNIVERSAL_TIME_OFFSET ( 1, 0, .AHEAD. ) ;
#137 = APPROVAL_DATE_TIME ( #176, #186 ) ;
#138 = ORIENTED_EDGE ( 'NONE', *, *, #167, .T. ) ;
#139 = FACE_BOUND ( 'NONE', #207, .T. ) ;
#140 = CIRCLE ( 'NONE', #177, 1.499999999999998446 ) ;
#141 = DIRECTION ( 'NONE',  ( 0.0000000000000000000, 1.000000000000000000, 0.0000000000000000000 ) ) ;
#142 = CC_DESIGN_APPROVAL ( #186, ( #115 ) ) ;
#143 = DIRECTION ( 'NONE',  ( -3.491481338843133355E-15, 1.229791517316362731E-16, -1.000000000000000000 ) ) ;
#144 = DESIGN_CONTEXT ( 'detailed design', #2, 'design' ) ;
#145 = CARTESIAN_POINT ( 'NONE',  ( 4.189777606611760026E-14, -1.475749820779635178E-15, 12.00000000000000000 ) ) ;
#146 = AXIS2_PLACEMENT_3D ( 'NONE', #105, #103, #58 ) ;
#147 = APPLICATION_PROTOCOL_DEFINITION ( 'international standard', 'config_control_design', 1994, #2 ) ;
#148 = VERTEX_POINT ( 'NONE', #189 ) ;
#149 = VERTEX_POINT ( 'NONE', #114 ) ;
#150 = PERSON_AND_ORGANIZATION ( #14, #35 ) ;
#151 = EDGE_CURVE ( 'NONE', #200, #200, #89, .T. ) ;
#152 = APPROVAL_STATUS ( 'not_yet_approved' ) ;
#153 = AXIS2_PLACEMENT_3D ( 'NONE', #160, #215, #165 ) ;
#154 = APPLICATION_CONTEXT ( 'configuration controlled 3d designs of mechanical parts and assemblies' ) ;
#155 = EDGE_LOOP ( 'NONE', ( #66 ) ) ;
#156 = AXIS2_PLACEMENT_3D ( 'NONE', #61, #39, #122 ) ;
#157 = DATE_AND_TIME ( #101, #11 ) ;
#158 = ORIENTED_EDGE ( 'NONE', *, *, #159, .T. ) ;
#159 = EDGE_CURVE ( 'NONE', #52, #52, #140, .T. ) ;
#160 = CARTESIAN_POINT ( 'NONE',  ( 4.189777606611760026E-14, 1.124819836996388690E-32, 12.00000000000000000 ) ) ;
#161 = CONICAL_SURFACE ( 'NONE', #209, 1.499999999999998446, 0.2617993877991500740 ) ;
#162 = CC_DESIGN_PERSON_AND_ORGANIZATION_ASSIGNMENT ( #77, #30, ( #178 ) ) ;
#163 = CYLINDRICAL_SURFACE ( 'NONE', #84, 0.9000000000000000222 ) ;
#164 = PRODUCT_DEFINITION_FORMATION_WITH_SPECIFIED_SOURCE ( 'ANY', '', #178, .NOT_KNOWN. ) ;
#165 = DIRECTION ( 'NONE',  ( -4.275831445896958607E-31, -1.000000000000000000, -1.224646799147353207E-16 ) ) ;
#166 = DIRECTION ( 'NONE',  ( 4.275831445896958607E-31, 1.000000000000000000, 1.224646799147353207E-16 ) ) ;
#167 = EDGE_CURVE ( 'NONE', #148, #148, #7, .T. ) ;
#168 = LOCAL_TIME ( 11, 23, 14.00000000000000000, #96 ) ;
#169 =( NAMED_UNIT ( * ) SI_UNIT ( $, .STERADIAN. ) SOLID_ANGLE_UNIT ( ) );
#170 = CALENDAR_DATE ( 2021, 28, 10 ) ;
#171 = ADVANCED_FACE ( 'NONE', ( #197 ), #29, .T. ) ;
#172 = AXIS2_PLACEMENT_3D ( 'NONE', #104, #196, #212 ) ;
#173 =( GEOMETRIC_REPRESENTATION_CONTEXT ( 3 ) GLOBAL_UNCERTAINTY_ASSIGNED_CONTEXT ( ( #109 ) ) GLOBAL_UNIT_ASSIGNED_CONTEXT ( ( #63, #31, #169 ) ) REPRESENTATION_CONTEXT ( 'NONE', 'WORKASPACE' ) );
#174 = APPROVAL_ROLE ( '' ) ;
#175 = ADVANCED_FACE ( 'NONE', ( #9 ), #40, .F. ) ;
#176 = DATE_AND_TIME ( #117, #134 ) ;
#177 = AXIS2_PLACEMENT_3D ( 'NONE', #26, #73, #123 ) ;
#178 = PRODUCT ( '962941', '962941', '', ( #129 ) ) ;
#179 = ORIENTED_EDGE ( 'NONE', *, *, #159, .F. ) ;
#180 = CLOSED_SHELL ( 'NONE', ( #106, #210, #171 ) ) ;
#181 = LOCAL_TIME ( 11, 23, 14.00000000000000000, #47 ) ;
#182 = CARTESIAN_POINT ( 'NONE',  ( 4.189777606611760026E-14, 1.124819836996388690E-32, 12.00000000000000000 ) ) ;
#183 = CARTESIAN_POINT ( 'NONE',  ( 4.189777606611760026E-14, 0.8999999999999984679, 12.00000000000000000 ) ) ;
#184 = FACE_OUTER_BOUND ( 'NONE', #100, .T. ) ;
#185 = PLANE ( 'NONE',  #156 ) ;
#186 = APPROVAL ( #194, 'UNSPECIFIED' ) ;
#187 = DATE_AND_TIME ( #110, #206 ) ;
#188 = PERSON_AND_ORGANIZATION ( #14, #35 ) ;
#189 = CARTESIAN_POINT ( 'NONE',  ( 1.316288464743861212E-13, 1.499999999999995337, 37.69999999999999574 ) ) ;
#190 = PERSON_AND_ORGANIZATION ( #14, #35 ) ;
#191 = AXIS2_PLACEMENT_3D ( 'NONE', #216, #92, #141 ) ;
#192 = PRODUCT_DEFINITION ( 'UNKNOWN', '', #164, #144 ) ;
#193 = ADVANCED_FACE ( 'NONE', ( #22, #124 ), #126, .T. ) ;
#194 = APPROVAL_STATUS ( 'not_yet_approved' ) ;
#195 = EDGE_LOOP ( 'NONE', ( #179 ) ) ;
#196 = DIRECTION ( 'NONE',  ( -3.491481338843133355E-15, 1.224646799147353207E-16, -1.000000000000000000 ) ) ;
#197 = FACE_OUTER_BOUND ( 'NONE', #90, .T. ) ;
#198 = VERTEX_POINT ( 'NONE', #183 ) ;
#199 = FACE_OUTER_BOUND ( 'NONE', #18, .T. ) ;
#200 = VERTEX_POINT ( 'NONE', #33 ) ;
#201 = APPROVAL_STATUS ( 'not_yet_approved' ) ;
#202 = MANIFOLD_SOLID_BREP ( 'Corps-Déplacer/Copier1[1]', #98 ) ;
#203 = APPROVAL_PERSON_ORGANIZATION ( #67, #186, #174 ) ;
#204 = PERSON_AND_ORGANIZATION_ROLE ( 'creator' ) ;
#205 = APPLICATION_PROTOCOL_DEFINITION ( 'international standard', 'config_control_design', 1994, #154 ) ;
#206 = LOCAL_TIME ( 11, 23, 14.00000000000000000, #128 ) ;
#207 = EDGE_LOOP ( 'NONE', ( #102 ) ) ;
#208 = EDGE_LOOP ( 'NONE', ( #85 ) ) ;
#209 = AXIS2_PLACEMENT_3D ( 'NONE', #69, #94, #70 ) ;
#210 = ADVANCED_FACE ( 'NONE', ( #184, #10 ), #163, .T. ) ;
#211 = CC_DESIGN_SECURITY_CLASSIFICATION ( #115, ( #164 ) ) ;
#212 = DIRECTION ( 'NONE',  ( 0.0000000000000000000, 1.000000000000000000, 0.0000000000000000000 ) ) ;
#213 = CIRCLE ( 'NONE', #191, 0.9000000000000000222 ) ;
#214 = CONICAL_SURFACE ( 'NONE', #82, 1.199999999999999956, 0.7853981633974453924 ) ;
#215 = DIRECTION ( 'NONE',  ( 3.491481338843133355E-15, -1.224646799147353207E-16, 1.000000000000000000 ) ) ;
#216 = CARTESIAN_POINT ( 'NONE',  ( 4.189777606611760026E-14, -1.475749820779635178E-15, 12.00000000000000000 ) ) ;
#217 = DIRECTION ( 'NONE',  ( -3.491481338843133355E-15, 1.229791517316362731E-16, -1.000000000000000000 ) ) ;
#218 = APPROVAL ( #201, 'UNSPECIFIED' ) ;
#219 = FACE_OUTER_BOUND ( 'NONE', #54, .T. ) ;
#220 = DIRECTION ( 'NONE',  ( 1.000000000000000000, 0.0000000000000000000, 0.0000000000000000000 ) ) ;
#221 = DATE_AND_TIME ( #170, #181 ) ;
#222 = AXIS2_PLACEMENT_3D ( 'NONE', #182, #41, #60 ) ;
#223 = PERSON_AND_ORGANIZATION_ROLE ( 'design_supplier' ) ;
ENDSEC;
END-ISO-10303-21;
