ISO-10303-21;
HEADER;
FILE_DESCRIPTION (( 'STEP AP203' ),
    '1' );
FILE_NAME ('962940.step',
    '2021-10-28T09:23:14',
    ( '' ),
    ( '' ),
    'SwSTEP 2.0',
    'SolidWorks 2019',
    '' );
FILE_SCHEMA (( 'CONFIG_CONTROL_DESIGN' ));
ENDSEC;

DATA;
#1 = DIRECTION ( 'NONE',  ( 1.000000000000000000, 0.0000000000000000000, 0.0000000000000000000 ) ) ;
#2 = COORDINATED_UNIVERSAL_TIME_OFFSET ( 1, 0, .AHEAD. ) ;
#3 = ORIENTED_EDGE ( 'NONE', *, *, #163, .F. ) ;
#4 = EDGE_CURVE ( 'NONE', #30, #30, #74, .T. ) ;
#5 = ADVANCED_BREP_SHAPE_REPRESENTATION ( '962940', ( #56, #62, #103 ), #34 ) ;
#6 = EDGE_LOOP ( 'NONE', ( #148 ) ) ;
#7 = DIRECTION ( 'NONE',  ( 0.0000000000000000000, 1.000000000000000000, 0.0000000000000000000 ) ) ;
#8 = CARTESIAN_POINT ( 'NONE',  ( 4.189777606611760026E-14, -1.475749820779635178E-15, 12.00000000000000000 ) ) ;
#9 = CC_DESIGN_APPROVAL ( #42, ( #205 ) ) ;
#10 = DIRECTION ( 'NONE',  ( -3.491481338843133355E-15, 1.224646799147353207E-16, -1.000000000000000000 ) ) ;
#11 = DIRECTION ( 'NONE',  ( 4.275831445896958607E-31, 1.000000000000000000, 1.224646799147353207E-16 ) ) ;
#12 = DIRECTION ( 'NONE',  ( 4.275831445896958607E-31, 1.000000000000000000, 1.224646799147353207E-16 ) ) ;
#13 = DIRECTION ( 'NONE',  ( 3.491481338843133355E-15, -1.224646799147353207E-16, 1.000000000000000000 ) ) ;
#14 = PRODUCT_RELATED_PRODUCT_CATEGORY ( 'detail', '', ( #162 ) ) ;
#15 =( LENGTH_UNIT ( ) NAMED_UNIT ( * ) SI_UNIT ( .MILLI., .METRE. ) );
#16 = VERTEX_POINT ( 'NONE', #158 ) ;
#17 = AXIS2_PLACEMENT_3D ( 'NONE', #65, #101, #165 ) ;
#18 = CALENDAR_DATE ( 2021, 28, 10 ) ;
#19 = AXIS2_PLACEMENT_3D ( 'NONE', #156, #120, #67 ) ;
#20 = EDGE_LOOP ( 'NONE', ( #3 ) ) ;
#21 = DATE_AND_TIME ( #24, #149 ) ;
#22 = DIRECTION ( 'NONE',  ( -3.491481338843133355E-15, 1.229791517316362731E-16, -1.000000000000000000 ) ) ;
#23 = AXIS2_PLACEMENT_3D ( 'NONE', #220, #64, #45 ) ;
#24 = CALENDAR_DATE ( 2021, 28, 10 ) ;
#25 = DIRECTION ( 'NONE',  ( -3.491481338843133355E-15, 1.224646799147353207E-16, -1.000000000000000000 ) ) ;
#26 = CARTESIAN_POINT ( 'NONE',  ( 5.004176716001829955E-14, -1.762602597363501831E-15, 14.33253175473053709 ) ) ;
#27 = CIRCLE ( 'NONE', #210, 1.499999999999999778 ) ;
#28 = CC_DESIGN_APPROVAL ( #182, ( #195 ) ) ;
#29 = ADVANCED_FACE ( 'NONE', ( #99 ), #70, .T. ) ;
#30 = VERTEX_POINT ( 'NONE', #167 ) ;
#31 = DIRECTION ( 'NONE',  ( 3.491481338843133355E-15, -1.224646799147353207E-16, 1.000000000000000000 ) ) ;
#32 = VERTEX_POINT ( 'NONE', #171 ) ;
#33 = ADVANCED_FACE ( 'NONE', ( #102, #166 ), #40, .T. ) ;
#34 =( GEOMETRIC_REPRESENTATION_CONTEXT ( 3 ) GLOBAL_UNCERTAINTY_ASSIGNED_CONTEXT ( ( #48 ) ) GLOBAL_UNIT_ASSIGNED_CONTEXT ( ( #15, #157, #188 ) ) REPRESENTATION_CONTEXT ( 'NONE', 'WORKASPACE' ) );
#35 = DIRECTION ( 'NONE',  ( 0.0000000000000000000, 0.0000000000000000000, 1.000000000000000000 ) ) ;
#36 = PERSON_AND_ORGANIZATION_ROLE ( 'creator' ) ;
#37 = CARTESIAN_POINT ( 'NONE',  ( 0.0000000000000000000, 0.0000000000000000000, 0.0000000000000000000 ) ) ;
#38 = LOCAL_TIME ( 11, 23, 14.00000000000000000, #180 ) ;
#39 = APPROVAL_DATE_TIME ( #190, #108 ) ;
#40 = CONICAL_SURFACE ( 'NONE', #194, 1.199999999999999956, 0.7853981633974453924 ) ;
#41 = EDGE_LOOP ( 'NONE', ( #78 ) ) ;
#42 = APPROVAL ( #97, 'UNSPECIFIED' ) ;
#43 = ORIENTED_EDGE ( 'NONE', *, *, #4, .F. ) ;
#44 = FACE_OUTER_BOUND ( 'NONE', #76, .T. ) ;
#45 = DIRECTION ( 'NONE',  ( 0.0000000000000000000, 1.000000000000000000, 0.0000000000000000000 ) ) ;
#46 = AXIS2_PLACEMENT_3D ( 'NONE', #8, #105, #150 ) ;
#47 = DIRECTION ( 'NONE',  ( -3.491481338843133355E-15, 1.224646799147353207E-16, -1.000000000000000000 ) ) ;
#48 = UNCERTAINTY_MEASURE_WITH_UNIT (LENGTH_MEASURE( 1.000000000000000082E-05 ), #15, 'distance_accuracy_value', 'NONE');
#49 = CC_DESIGN_DATE_AND_TIME_ASSIGNMENT ( #160, #73, ( #131 ) ) ;
#50 = CARTESIAN_POINT ( 'NONE',  ( 1.326762908760390423E-13, 1.199999999999995293, 38.00000000000000000 ) ) ;
#51 = DATE_AND_TIME ( #204, #223 ) ;
#52 = APPROVAL_STATUS ( 'not_yet_approved' ) ;
#53 = PERSON ( 'UNSPECIFIED', 'UNSPECIFIED', 'UNSPECIFIED', ('UNSPECIFIED'), ('UNSPECIFIED'), ('UNSPECIFIED') ) ;
#54 = PERSON_AND_ORGANIZATION ( #53, #214 ) ;
#55 = PERSON_AND_ORGANIZATION ( #53, #214 ) ;
#56 = MANIFOLD_SOLID_BREP ( 'Corps-Déplacer/Copier1[1]', #213 ) ;
#57 = EDGE_LOOP ( 'NONE', ( #145 ) ) ;
#58 = AXIS2_PLACEMENT_3D ( 'NONE', #185, #47, #11 ) ;
#59 = CC_DESIGN_PERSON_AND_ORGANIZATION_ASSIGNMENT ( #206, #221, ( #162 ) ) ;
#60 = APPROVAL_ROLE ( '' ) ;
#61 = ORIENTED_EDGE ( 'NONE', *, *, #202, .T. ) ;
#62 = MANIFOLD_SOLID_BREP ( 'Corps-Déplacer/Copier1[2]', #118 ) ;
#63 = ORIENTED_EDGE ( 'NONE', *, *, #189, .T. ) ;
#64 = DIRECTION ( 'NONE',  ( -3.491481338843133355E-15, 1.229791517316362731E-16, -1.000000000000000000 ) ) ;
#65 = CARTESIAN_POINT ( 'NONE',  ( 4.189777606611760026E-14, 1.124819836996388690E-32, 12.00000000000000000 ) ) ;
#66 = FACE_OUTER_BOUND ( 'NONE', #57, .T. ) ;
#67 = DIRECTION ( 'NONE',  ( 4.293794133377662246E-31, 1.000000000000000000, 1.229791517316362731E-16 ) ) ;
#68 = DIRECTION ( 'NONE',  ( 0.0000000000000000000, -1.000000000000000000, 0.0000000000000000000 ) ) ;
#69 = APPROVAL_ROLE ( '' ) ;
#70 = CONICAL_SURFACE ( 'NONE', #199, 1.499999999999995559, 1.221730476396026388 ) ;
#71 = CC_DESIGN_APPROVAL ( #108, ( #131 ) ) ;
#72 = APPLICATION_PROTOCOL_DEFINITION ( 'international standard', 'config_control_design', 1994, #89 ) ;
#73 = DATE_TIME_ROLE ( 'creation_date' ) ;
#74 = CIRCLE ( 'NONE', #126, 0.8750000000000000000 ) ;
#75 = DATE_AND_TIME ( #77, #38 ) ;
#76 = EDGE_LOOP ( 'NONE', ( #80 ) ) ;
#77 = CALENDAR_DATE ( 2021, 28, 10 ) ;
#78 = ORIENTED_EDGE ( 'NONE', *, *, #211, .T. ) ;
#79 = PERSON_AND_ORGANIZATION ( #53, #214 ) ;
#80 = ORIENTED_EDGE ( 'NONE', *, *, #202, .F. ) ;
#81 = CARTESIAN_POINT ( 'NONE',  ( 1.906192921252232855E-15, -6.686024735685322183E-17, 0.5459553513993090634 ) ) ;
#82 = CARTESIAN_POINT ( 'NONE',  ( 1.316288464743861212E-13, -4.616918432785521081E-15, 37.69999999999999574 ) ) ;
#83 = LOCAL_TIME ( 11, 23, 14.00000000000000000, #173 ) ;
#84 = CYLINDRICAL_SURFACE ( 'NONE', #58, 1.499999999999998224 ) ;
#85 = DIRECTION ( 'NONE',  ( -3.491481338843133355E-15, 1.224646799147353207E-16, -1.000000000000000000 ) ) ;
#86 = DIRECTION ( 'NONE',  ( -3.491481338843133355E-15, 1.224646799147353207E-16, -1.000000000000000000 ) ) ;
#87 = CC_DESIGN_PERSON_AND_ORGANIZATION_ASSIGNMENT ( #55, #132, ( #195 ) ) ;
#88 = FACE_OUTER_BOUND ( 'NONE', #209, .T. ) ;
#89 = APPLICATION_CONTEXT ( 'configuration controlled 3d designs of mechanical parts and assemblies' ) ;
#90 = CARTESIAN_POINT ( 'NONE',  ( 5.004176716001829955E-14, 1.499999999999996669, 14.33253175473053709 ) ) ;
#91 = PERSON_AND_ORGANIZATION_ROLE ( 'creator' ) ;
#92 = CC_DESIGN_PERSON_AND_ORGANIZATION_ASSIGNMENT ( #110, #91, ( #131 ) ) ;
#93 = LOCAL_TIME ( 11, 23, 14.00000000000000000, #2 ) ;
#94 = COORDINATED_UNIVERSAL_TIME_OFFSET ( 1, 0, .AHEAD. ) ;
#95 = PERSON_AND_ORGANIZATION ( #53, #214 ) ;
#96 = ORIENTED_EDGE ( 'NONE', *, *, #100, .F. ) ;
#97 = APPROVAL_STATUS ( 'not_yet_approved' ) ;
#98 = EDGE_LOOP ( 'NONE', ( #96 ) ) ;
#99 = FACE_OUTER_BOUND ( 'NONE', #41, .T. ) ;
#100 = EDGE_CURVE ( 'NONE', #203, #203, #222, .T. ) ;
#101 = DIRECTION ( 'NONE',  ( 3.491481338843133355E-15, -1.224646799147353207E-16, 1.000000000000000000 ) ) ;
#102 = FACE_OUTER_BOUND ( 'NONE', #20, .T. ) ;
#103 = AXIS2_PLACEMENT_3D ( 'NONE', #37, #35, #1 ) ;
#104 = DIRECTION ( 'NONE',  ( -3.491481338843133355E-15, 1.224646799147353207E-16, -1.000000000000000000 ) ) ;
#105 = DIRECTION ( 'NONE',  ( -3.491481338843133355E-15, 1.229791517316362731E-16, -1.000000000000000000 ) ) ;
#106 = VERTEX_POINT ( 'NONE', #90 ) ;
#107 = PERSON_AND_ORGANIZATION ( #53, #214 ) ;
#108 = APPROVAL ( #129, 'UNSPECIFIED' ) ;
#109 = APPROVAL_PERSON_ORGANIZATION ( #79, #42, #60 ) ;
#110 = PERSON_AND_ORGANIZATION ( #53, #214 ) ;
#111 = MECHANICAL_CONTEXT ( 'NONE', #89, 'mechanical' ) ;
#112 = APPROVAL_DATE_TIME ( #75, #42 ) ;
#113 = ORIENTED_EDGE ( 'NONE', *, *, #4, .T. ) ;
#114 = APPROVAL_PERSON_ORGANIZATION ( #107, #182, #172 ) ;
#115 = EDGE_LOOP ( 'NONE', ( #113 ) ) ;
#116 = ADVANCED_FACE ( 'NONE', ( #44, #217 ), #84, .T. ) ;
#117 = PERSON_AND_ORGANIZATION_ROLE ( 'classification_officer' ) ;
#118 = CLOSED_SHELL ( 'NONE', ( #169, #159, #29 ) ) ;
#119 = EDGE_LOOP ( 'NONE', ( #133 ) ) ;
#120 = DIRECTION ( 'NONE',  ( -3.491481338843133355E-15, 1.229791517316362731E-16, -1.000000000000000000 ) ) ;
#121 = FACE_BOUND ( 'NONE', #164, .T. ) ;
#122 = AXIS2_PLACEMENT_3D ( 'NONE', #186, #31, #197 ) ;
#123 = CARTESIAN_POINT ( 'NONE',  ( 1.326762908760390423E-13, -4.653657836759941941E-15, 38.00000000000000000 ) ) ;
#124 = FACE_OUTER_BOUND ( 'NONE', #98, .T. ) ;
#125 = VERTEX_POINT ( 'NONE', #187 ) ;
#126 = AXIS2_PLACEMENT_3D ( 'NONE', #178, #22, #7 ) ;
#127 = CC_DESIGN_PERSON_AND_ORGANIZATION_ASSIGNMENT ( #95, #117, ( #205 ) ) ;
#128 = APPLICATION_CONTEXT ( 'configuration controlled 3d designs of mechanical parts and assemblies' ) ;
#129 = APPROVAL_STATUS ( 'not_yet_approved' ) ;
#130 = AXIS2_PLACEMENT_3D ( 'NONE', #123, #104, #196 ) ;
#131 = PRODUCT_DEFINITION ( 'UNKNOWN', '', #195, #140 ) ;
#132 = PERSON_AND_ORGANIZATION_ROLE ( 'design_supplier' ) ;
#133 = ORIENTED_EDGE ( 'NONE', *, *, #211, .F. ) ;
#134 = PLANE ( 'NONE',  #122 ) ;
#135 = DIRECTION ( 'NONE',  ( 3.491481338843133355E-15, -1.229791517316362731E-16, 1.000000000000000000 ) ) ;
#136 = PLANE ( 'NONE',  #184 ) ;
#137 = DIRECTION ( 'NONE',  ( 0.0000000000000000000, 1.000000000000000000, 0.0000000000000000000 ) ) ;
#138 = COORDINATED_UNIVERSAL_TIME_OFFSET ( 1, 0, .AHEAD. ) ;
#139 = CALENDAR_DATE ( 2021, 28, 10 ) ;
#140 = DESIGN_CONTEXT ( 'detailed design', #128, 'design' ) ;
#141 = APPROVAL_DATE_TIME ( #51, #182 ) ;
#142 = CONICAL_SURFACE ( 'NONE', #170, 1.499999999999998446, 0.2617993877991500740 ) ;
#143 = DATE_TIME_ROLE ( 'classification_date' ) ;
#144 = CC_DESIGN_PERSON_AND_ORGANIZATION_ASSIGNMENT ( #207, #36, ( #195 ) ) ;
#145 = ORIENTED_EDGE ( 'NONE', *, *, #189, .F. ) ;
#146 = CIRCLE ( 'NONE', #46, 0.8750000000000000000 ) ;
#147 = CC_DESIGN_SECURITY_CLASSIFICATION ( #205, ( #195 ) ) ;
#148 = ORIENTED_EDGE ( 'NONE', *, *, #100, .T. ) ;
#149 = LOCAL_TIME ( 11, 23, 14.00000000000000000, #94 ) ;
#150 = DIRECTION ( 'NONE',  ( 0.0000000000000000000, 1.000000000000000000, 0.0000000000000000000 ) ) ;
#151 = FACE_OUTER_BOUND ( 'NONE', #119, .T. ) ;
#152 = ADVANCED_FACE ( 'NONE', ( #124 ), #136, .F. ) ;
#153 = DIRECTION ( 'NONE',  ( 0.0000000000000000000, 1.000000000000000000, 0.0000000000000000000 ) ) ;
#154 = CIRCLE ( 'NONE', #179, 0.8750000000000000000 ) ;
#155 = DIRECTION ( 'NONE',  ( -5.135813185032644414E-31, -1.000000000000000000, -1.445602896647343601E-16 ) ) ;
#156 = CARTESIAN_POINT ( 'NONE',  ( 0.0000000000000000000, 0.0000000000000000000, 0.0000000000000000000 ) ) ;
#157 =( NAMED_UNIT ( * ) PLANE_ANGLE_UNIT ( ) SI_UNIT ( $, .RADIAN. ) );
#158 = CARTESIAN_POINT ( 'NONE',  ( 1.111945870730471992E-15, -0.8750000000000000000, 0.3184739549829310734 ) ) ;
#159 = ADVANCED_FACE ( 'NONE', ( #88, #151 ), #215, .T. ) ;
#160 = DATE_AND_TIME ( #18, #83 ) ;
#161 = APPLICATION_PROTOCOL_DEFINITION ( 'international standard', 'config_control_design', 1994, #128 ) ;
#162 = PRODUCT ( '962940', '962940', '', ( #111 ) ) ;
#163 = EDGE_CURVE ( 'NONE', #125, #125, #27, .T. ) ;
#164 = EDGE_LOOP ( 'NONE', ( #43 ) ) ;
#165 = DIRECTION ( 'NONE',  ( -4.275831445896958607E-31, -1.000000000000000000, -1.224646799147353207E-16 ) ) ;
#166 = FACE_BOUND ( 'NONE', #6, .T. ) ;
#167 = CARTESIAN_POINT ( 'NONE',  ( 4.189777606611760026E-14, 0.8749999999999984457, 12.00000000000000000 ) ) ;
#168 = CARTESIAN_POINT ( 'NONE',  ( 1.111945870730472387E-15, -3.900181095816448828E-17, 0.3184739549829311844 ) ) ;
#169 = ADVANCED_FACE ( 'NONE', ( #66 ), #134, .T. ) ;
#170 = AXIS2_PLACEMENT_3D ( 'NONE', #26, #135, #68 ) ;
#171 = CARTESIAN_POINT ( 'NONE',  ( 4.189777606611760026E-14, 0.8749999999999984457, 12.00000000000000000 ) ) ;
#172 = APPROVAL_ROLE ( '' ) ;
#173 = COORDINATED_UNIVERSAL_TIME_OFFSET ( 1, 0, .AHEAD. ) ;
#174 = SHAPE_DEFINITION_REPRESENTATION ( #176, #5 ) ;
#175 = EDGE_LOOP ( 'NONE', ( #61 ) ) ;
#176 = PRODUCT_DEFINITION_SHAPE ( 'NONE', 'NONE',  #131 ) ;
#177 = ADVANCED_FACE ( 'NONE', ( #181 ), #216, .F. ) ;
#178 = CARTESIAN_POINT ( 'NONE',  ( 4.189777606611760026E-14, -1.475749820779635178E-15, 12.00000000000000000 ) ) ;
#179 = AXIS2_PLACEMENT_3D ( 'NONE', #168, #86, #219 ) ;
#180 = COORDINATED_UNIVERSAL_TIME_OFFSET ( 1, 0, .AHEAD. ) ;
#181 = FACE_OUTER_BOUND ( 'NONE', #115, .T. ) ;
#182 = APPROVAL ( #52, 'UNSPECIFIED' ) ;
#183 = FACE_OUTER_BOUND ( 'NONE', #175, .T. ) ;
#184 = AXIS2_PLACEMENT_3D ( 'NONE', #201, #85, #12 ) ;
#185 = CARTESIAN_POINT ( 'NONE',  ( 0.0000000000000000000, 0.0000000000000000000, 0.0000000000000000000 ) ) ;
#186 = CARTESIAN_POINT ( 'NONE',  ( 4.189777606611760026E-14, 1.124819836996388690E-32, 12.00000000000000000 ) ) ;
#187 = CARTESIAN_POINT ( 'NONE',  ( 1.316288464743861212E-13, 1.499999999999995337, 37.69999999999999574 ) ) ;
#188 =( NAMED_UNIT ( * ) SI_UNIT ( $, .STERADIAN. ) SOLID_ANGLE_UNIT ( ) );
#189 = EDGE_CURVE ( 'NONE', #32, #32, #146, .T. ) ;
#190 = DATE_AND_TIME ( #139, #93 ) ;
#191 = CIRCLE ( 'NONE', #23, 1.499999999999998446 ) ;
#192 = SECURITY_CLASSIFICATION_LEVEL ( 'unclassified' ) ;
#193 = CC_DESIGN_DATE_AND_TIME_ASSIGNMENT ( #21, #143, ( #205 ) ) ;
#194 = AXIS2_PLACEMENT_3D ( 'NONE', #198, #10, #153 ) ;
#195 = PRODUCT_DEFINITION_FORMATION_WITH_SPECIFIED_SOURCE ( 'ANY', '', #162, .NOT_KNOWN. ) ;
#196 = DIRECTION ( 'NONE',  ( 0.0000000000000000000, 1.000000000000000000, 0.0000000000000000000 ) ) ;
#197 = DIRECTION ( 'NONE',  ( -4.275831445896958607E-31, -1.000000000000000000, -1.224646799147353207E-16 ) ) ;
#198 = CARTESIAN_POINT ( 'NONE',  ( 1.326762908760390423E-13, -4.653657836759941941E-15, 38.00000000000000000 ) ) ;
#199 = AXIS2_PLACEMENT_3D ( 'NONE', #81, #13, #155 ) ;
#200 = APPROVAL_PERSON_ORGANIZATION ( #54, #108, #69 ) ;
#201 = CARTESIAN_POINT ( 'NONE',  ( 1.326762908760390423E-13, 8.998558695971077224E-33, 38.00000000000000000 ) ) ;
#202 = EDGE_CURVE ( 'NONE', #106, #106, #191, .T. ) ;
#203 = VERTEX_POINT ( 'NONE', #50 ) ;
#204 = CALENDAR_DATE ( 2021, 28, 10 ) ;
#205 = SECURITY_CLASSIFICATION ( '', '', #192 ) ;
#206 = PERSON_AND_ORGANIZATION ( #53, #214 ) ;
#207 = PERSON_AND_ORGANIZATION ( #53, #214 ) ;
#208 = EDGE_LOOP ( 'NONE', ( #212 ) ) ;
#209 = EDGE_LOOP ( 'NONE', ( #63 ) ) ;
#210 = AXIS2_PLACEMENT_3D ( 'NONE', #82, #25, #137 ) ;
#211 = EDGE_CURVE ( 'NONE', #16, #16, #154, .T. ) ;
#212 = ORIENTED_EDGE ( 'NONE', *, *, #163, .T. ) ;
#213 = CLOSED_SHELL ( 'NONE', ( #116, #33, #152, #218, #177 ) ) ;
#214 = ORGANIZATION ( 'UNSPECIFIED', 'UNSPECIFIED', '' ) ;
#215 = CYLINDRICAL_SURFACE ( 'NONE', #19, 0.8750000000000000000 ) ;
#216 = PLANE ( 'NONE',  #17 ) ;
#217 = FACE_OUTER_BOUND ( 'NONE', #208, .T. ) ;
#218 = ADVANCED_FACE ( 'NONE', ( #121, #183 ), #142, .T. ) ;
#219 = DIRECTION ( 'NONE',  ( -4.402125587170824932E-31, -1.000000000000000000, -1.239088197126290817E-16 ) ) ;
#220 = CARTESIAN_POINT ( 'NONE',  ( 5.004176716001829955E-14, -1.762602597363501831E-15, 14.33253175473053709 ) ) ;
#221 = PERSON_AND_ORGANIZATION_ROLE ( 'design_owner' ) ;
#222 = CIRCLE ( 'NONE', #130, 1.199999999999999956 ) ;
#223 = LOCAL_TIME ( 11, 23, 14.00000000000000000, #138 ) ;
ENDSEC;
END-ISO-10303-21;
