ISO-10303-21;
HEADER;
FILE_DESCRIPTION (( 'STEP AP203' ),
    '1' );
FILE_NAME ('962938.step',
    '2021-10-28T09:23:13',
    ( '' ),
    ( '' ),
    'SwSTEP 2.0',
    'SolidWorks 2019',
    '' );
FILE_SCHEMA (( 'CONFIG_CONTROL_DESIGN' ));
ENDSEC;

DATA;
#1 =( GEOMETRIC_REPRESENTATION_CONTEXT ( 3 ) GLOBAL_UNCERTAINTY_ASSIGNED_CONTEXT ( ( #45 ) ) GLOBAL_UNIT_ASSIGNED_CONTEXT ( ( #186, #135, #48 ) ) REPRESENTATION_CONTEXT ( 'NONE', 'WORKASPACE' ) );
#2 = EDGE_LOOP ( 'NONE', ( #17 ) ) ;
#3 = EDGE_LOOP ( 'NONE', ( #123 ) ) ;
#4 = CONICAL_SURFACE ( 'NONE', #58, 1.499999999999995559, 1.221730476396026388 ) ;
#5 = EDGE_LOOP ( 'NONE', ( #68 ) ) ;
#6 = DIRECTION ( 'NONE',  ( 0.0000000000000000000, 1.000000000000000000, 0.0000000000000000000 ) ) ;
#7 = DIRECTION ( 'NONE',  ( -5.135813185032644414E-31, -1.000000000000000000, -1.445602896647343601E-16 ) ) ;
#8 = EDGE_LOOP ( 'NONE', ( #223 ) ) ;
#9 = CARTESIAN_POINT ( 'NONE',  ( 4.189777606611760026E-14, 1.124819836996388690E-32, 12.00000000000000000 ) ) ;
#10 = APPROVAL ( #111, 'UNSPECIFIED' ) ;
#11 = COORDINATED_UNIVERSAL_TIME_OFFSET ( 1, 0, .AHEAD. ) ;
#12 = ADVANCED_FACE ( 'NONE', ( #128, #41 ), #19, .T. ) ;
#13 = CIRCLE ( 'NONE', #129, 0.8499999999999999778 ) ;
#14 = LOCAL_TIME ( 11, 23, 13.00000000000000000, #11 ) ;
#15 = PERSON_AND_ORGANIZATION_ROLE ( 'creator' ) ;
#16 = EDGE_LOOP ( 'NONE', ( #209 ) ) ;
#17 = ORIENTED_EDGE ( 'NONE', *, *, #167, .T. ) ;
#18 = ADVANCED_FACE ( 'NONE', ( #124, #106 ), #57, .T. ) ;
#19 = CYLINDRICAL_SURFACE ( 'NONE', #36, 0.8499999999999999778 ) ;
#20 = MANIFOLD_SOLID_BREP ( 'Corps-Déplacer/Copier1[1]', #160 ) ;
#21 = DIRECTION ( 'NONE',  ( 0.0000000000000000000, 1.000000000000000000, 0.0000000000000000000 ) ) ;
#22 = CARTESIAN_POINT ( 'NONE',  ( 5.036752680377432828E-14, -1.774076708426856371E-15, 14.42583302491975950 ) ) ;
#23 = CARTESIAN_POINT ( 'NONE',  ( 1.326762908760390423E-13, -4.653657836759941941E-15, 38.00000000000000000 ) ) ;
#24 = AXIS2_PLACEMENT_3D ( 'NONE', #75, #56, #61 ) ;
#25 = CARTESIAN_POINT ( 'NONE',  ( 4.189777606611760026E-14, -1.475749820779635178E-15, 12.00000000000000000 ) ) ;
#26 = ADVANCED_FACE ( 'NONE', ( #42 ), #4, .T. ) ;
#27 = DIRECTION ( 'NONE',  ( 1.000000000000000000, 0.0000000000000000000, 0.0000000000000000000 ) ) ;
#28 = AXIS2_PLACEMENT_3D ( 'NONE', #23, #215, #168 ) ;
#29 = CARTESIAN_POINT ( 'NONE',  ( 0.0000000000000000000, 0.0000000000000000000, 0.0000000000000000000 ) ) ;
#30 = PERSON_AND_ORGANIZATION ( #80, #170 ) ;
#31 = DATE_AND_TIME ( #115, #67 ) ;
#32 = PERSON_AND_ORGANIZATION_ROLE ( 'classification_officer' ) ;
#33 = CIRCLE ( 'NONE', #193, 0.8499999999999999778 ) ;
#34 = EDGE_LOOP ( 'NONE', ( #162 ) ) ;
#35 = ADVANCED_FACE ( 'NONE', ( #182, #91 ), #140, .T. ) ;
#36 = AXIS2_PLACEMENT_3D ( 'NONE', #211, #105, #108 ) ;
#37 = AXIS2_PLACEMENT_3D ( 'NONE', #127, #126, #164 ) ;
#38 = DIRECTION ( 'NONE',  ( -4.275831445896958607E-31, -1.000000000000000000, -1.224646799147353207E-16 ) ) ;
#39 = DIRECTION ( 'NONE',  ( -3.491481338843133355E-15, 1.224646799147353207E-16, -1.000000000000000000 ) ) ;
#40 = FACE_OUTER_BOUND ( 'NONE', #34, .T. ) ;
#41 = FACE_OUTER_BOUND ( 'NONE', #16, .T. ) ;
#42 = FACE_OUTER_BOUND ( 'NONE', #52, .T. ) ;
#43 = VERTEX_POINT ( 'NONE', #172 ) ;
#44 = PERSON_AND_ORGANIZATION_ROLE ( 'design_owner' ) ;
#45 = UNCERTAINTY_MEASURE_WITH_UNIT (LENGTH_MEASURE( 1.000000000000000082E-05 ), #186, 'distance_accuracy_value', 'NONE');
#46 = COORDINATED_UNIVERSAL_TIME_OFFSET ( 1, 0, .AHEAD. ) ;
#47 = PERSON_AND_ORGANIZATION ( #80, #170 ) ;
#48 =( NAMED_UNIT ( * ) SI_UNIT ( $, .STERADIAN. ) SOLID_ANGLE_UNIT ( ) );
#49 = AXIS2_PLACEMENT_3D ( 'NONE', #9, #197, #93 ) ;
#50 = CC_DESIGN_PERSON_AND_ORGANIZATION_ASSIGNMENT ( #95, #44, ( #69 ) ) ;
#51 = EDGE_LOOP ( 'NONE', ( #85 ) ) ;
#52 = EDGE_LOOP ( 'NONE', ( #157 ) ) ;
#53 = CARTESIAN_POINT ( 'NONE',  ( 4.189777606611760026E-14, -1.475749820779635178E-15, 12.00000000000000000 ) ) ;
#54 = DIRECTION ( 'NONE',  ( -4.531599869146437404E-31, -1.000000000000000000, -1.275531967630005245E-16 ) ) ;
#55 = DIRECTION ( 'NONE',  ( 0.0000000000000000000, 1.000000000000000000, 0.0000000000000000000 ) ) ;
#56 = DIRECTION ( 'NONE',  ( -3.491481338843133355E-15, 1.224646799147353207E-16, -1.000000000000000000 ) ) ;
#57 = CYLINDRICAL_SURFACE ( 'NONE', #210, 1.499999999999998224 ) ;
#58 = AXIS2_PLACEMENT_3D ( 'NONE', #107, #195, #7 ) ;
#59 = CC_DESIGN_APPROVAL ( #158, ( #63 ) ) ;
#60 = VERTEX_POINT ( 'NONE', #62 ) ;
#61 = DIRECTION ( 'NONE',  ( 0.0000000000000000000, 1.000000000000000000, 0.0000000000000000000 ) ) ;
#62 = CARTESIAN_POINT ( 'NONE',  ( 1.326762908760390423E-13, 1.199999999999995293, 38.00000000000000000 ) ) ;
#63 = PRODUCT_DEFINITION_FORMATION_WITH_SPECIFIED_SOURCE ( 'ANY', '', #69, .NOT_KNOWN. ) ;
#64 = CALENDAR_DATE ( 2021, 28, 10 ) ;
#65 = EDGE_CURVE ( 'NONE', #187, #187, #13, .T. ) ;
#66 = CC_DESIGN_APPROVAL ( #10, ( #194 ) ) ;
#67 = LOCAL_TIME ( 11, 23, 13.00000000000000000, #206 ) ;
#68 = ORIENTED_EDGE ( 'NONE', *, *, #176, .F. ) ;
#69 = PRODUCT ( '962938', '962938', '', ( #204 ) ) ;
#70 = EDGE_LOOP ( 'NONE', ( #179 ) ) ;
#71 = DIRECTION ( 'NONE',  ( 3.491481338843133355E-15, -1.224646799147353207E-16, 1.000000000000000000 ) ) ;
#72 = CC_DESIGN_PERSON_AND_ORGANIZATION_ASSIGNMENT ( #116, #32, ( #156 ) ) ;
#73 = FACE_OUTER_BOUND ( 'NONE', #119, .T. ) ;
#74 = FACE_OUTER_BOUND ( 'NONE', #200, .T. ) ;
#75 = CARTESIAN_POINT ( 'NONE',  ( 1.316288464743861212E-13, -4.616918432785521081E-15, 37.69999999999999574 ) ) ;
#76 = DIRECTION ( 'NONE',  ( 3.491481338843133355E-15, -1.229791517316362731E-16, 1.000000000000000000 ) ) ;
#77 = APPLICATION_CONTEXT ( 'configuration controlled 3d designs of mechanical parts and assemblies' ) ;
#78 = CARTESIAN_POINT ( 'NONE',  ( 1.080175988709601313E-15, -0.8499999999999999778, 0.3093746991262758539 ) ) ;
#79 = CIRCLE ( 'NONE', #24, 1.499999999999999778 ) ;
#80 = PERSON ( 'UNSPECIFIED', 'UNSPECIFIED', 'UNSPECIFIED', ('UNSPECIFIED'), ('UNSPECIFIED'), ('UNSPECIFIED') ) ;
#81 = DESIGN_CONTEXT ( 'detailed design', #77, 'design' ) ;
#82 = DATE_AND_TIME ( #219, #14 ) ;
#83 = PERSON_AND_ORGANIZATION ( #80, #170 ) ;
#84 = ADVANCED_FACE ( 'NONE', ( #74 ), #180, .F. ) ;
#85 = ORIENTED_EDGE ( 'NONE', *, *, #199, .T. ) ;
#86 = APPLICATION_CONTEXT ( 'configuration controlled 3d designs of mechanical parts and assemblies' ) ;
#87 = COORDINATED_UNIVERSAL_TIME_OFFSET ( 1, 0, .AHEAD. ) ;
#88 = ADVANCED_BREP_SHAPE_REPRESENTATION ( '962938', ( #20, #98, #137 ), #1 ) ;
#89 = DIRECTION ( 'NONE',  ( -3.491481338843133355E-15, 1.229791517316362731E-16, -1.000000000000000000 ) ) ;
#90 = CARTESIAN_POINT ( 'NONE',  ( 0.0000000000000000000, 0.0000000000000000000, 0.0000000000000000000 ) ) ;
#91 = FACE_OUTER_BOUND ( 'NONE', #70, .T. ) ;
#92 = CC_DESIGN_PERSON_AND_ORGANIZATION_ASSIGNMENT ( #47, #205, ( #194 ) ) ;
#93 = DIRECTION ( 'NONE',  ( -4.275831445896958607E-31, -1.000000000000000000, -1.224646799147353207E-16 ) ) ;
#94 = DIRECTION ( 'NONE',  ( -3.491481338843133355E-15, 1.229791517316362731E-16, -1.000000000000000000 ) ) ;
#95 = PERSON_AND_ORGANIZATION ( #80, #170 ) ;
#96 = PERSON_AND_ORGANIZATION ( #80, #170 ) ;
#97 = CC_DESIGN_PERSON_AND_ORGANIZATION_ASSIGNMENT ( #83, #153, ( #63 ) ) ;
#98 = MANIFOLD_SOLID_BREP ( 'Corps-Déplacer/Copier1[2]', #136 ) ;
#99 = APPLICATION_PROTOCOL_DEFINITION ( 'international standard', 'config_control_design', 1994, #86 ) ;
#100 = APPROVAL_STATUS ( 'not_yet_approved' ) ;
#101 = EDGE_CURVE ( 'NONE', #110, #110, #216, .T. ) ;
#102 = APPROVAL_DATE_TIME ( #31, #158 ) ;
#103 = ORIENTED_EDGE ( 'NONE', *, *, #101, .F. ) ;
#104 = AXIS2_PLACEMENT_3D ( 'NONE', #130, #94, #55 ) ;
#105 = DIRECTION ( 'NONE',  ( -3.491481338843133355E-15, 1.229791517316362731E-16, -1.000000000000000000 ) ) ;
#106 = FACE_OUTER_BOUND ( 'NONE', #51, .T. ) ;
#107 = CARTESIAN_POINT ( 'NONE',  ( 1.906192921252232855E-15, -6.686024735685322183E-17, 0.5459553513993090634 ) ) ;
#108 = DIRECTION ( 'NONE',  ( 4.293794133377662246E-31, 1.000000000000000000, 1.229791517316362731E-16 ) ) ;
#109 = CARTESIAN_POINT ( 'NONE',  ( 4.189777606611760026E-14, 1.124819836996388690E-32, 12.00000000000000000 ) ) ;
#110 = VERTEX_POINT ( 'NONE', #203 ) ;
#111 = APPROVAL_STATUS ( 'not_yet_approved' ) ;
#112 = APPROVAL_PERSON_ORGANIZATION ( #148, #181, #178 ) ;
#113 = DATE_AND_TIME ( #134, #217 ) ;
#114 = CC_DESIGN_PERSON_AND_ORGANIZATION_ASSIGNMENT ( #174, #15, ( #63 ) ) ;
#115 = CALENDAR_DATE ( 2021, 28, 10 ) ;
#116 = PERSON_AND_ORGANIZATION ( #80, #170 ) ;
#117 = AXIS2_PLACEMENT_3D ( 'NONE', #25, #89, #21 ) ;
#118 = APPROVAL_PERSON_ORGANIZATION ( #96, #10, #171 ) ;
#119 = EDGE_LOOP ( 'NONE', ( #103 ) ) ;
#120 = DATE_TIME_ROLE ( 'classification_date' ) ;
#121 = CC_DESIGN_SECURITY_CLASSIFICATION ( #156, ( #63 ) ) ;
#122 = EDGE_CURVE ( 'NONE', #221, #221, #184, .T. ) ;
#123 = ORIENTED_EDGE ( 'NONE', *, *, #122, .F. ) ;
#124 = FACE_OUTER_BOUND ( 'NONE', #3, .T. ) ;
#125 = SECURITY_CLASSIFICATION_LEVEL ( 'unclassified' ) ;
#126 = DIRECTION ( 'NONE',  ( -3.491481338843133355E-15, 1.224646799147353207E-16, -1.000000000000000000 ) ) ;
#127 = CARTESIAN_POINT ( 'NONE',  ( 1.326762908760390423E-13, 8.998558695971077224E-33, 38.00000000000000000 ) ) ;
#128 = FACE_OUTER_BOUND ( 'NONE', #8, .T. ) ;
#129 = AXIS2_PLACEMENT_3D ( 'NONE', #214, #149, #54 ) ;
#130 = CARTESIAN_POINT ( 'NONE',  ( 5.036752680377432828E-14, -1.774076708426856371E-15, 14.42583302491975950 ) ) ;
#131 = ADVANCED_FACE ( 'NONE', ( #143 ), #147, .F. ) ;
#132 = APPROVAL_DATE_TIME ( #82, #10 ) ;
#133 = ADVANCED_FACE ( 'NONE', ( #40, #166 ), #152, .T. ) ;
#134 = CALENDAR_DATE ( 2021, 28, 10 ) ;
#135 =( NAMED_UNIT ( * ) PLANE_ANGLE_UNIT ( ) SI_UNIT ( $, .RADIAN. ) );
#136 = CLOSED_SHELL ( 'NONE', ( #185, #12, #26 ) ) ;
#137 = AXIS2_PLACEMENT_3D ( 'NONE', #29, #150, #27 ) ;
#138 = PRODUCT_RELATED_PRODUCT_CATEGORY ( 'detail', '', ( #69 ) ) ;
#139 = ORIENTED_EDGE ( 'NONE', *, *, #167, .F. ) ;
#140 = CONICAL_SURFACE ( 'NONE', #201, 1.499999999999998446, 0.2617993877991500740 ) ;
#141 = CIRCLE ( 'NONE', #28, 1.199999999999999956 ) ;
#142 = APPROVAL_STATUS ( 'not_yet_approved' ) ;
#143 = FACE_OUTER_BOUND ( 'NONE', #192, .T. ) ;
#144 = PLANE ( 'NONE',  #49 ) ;
#145 = CC_DESIGN_APPROVAL ( #181, ( #156 ) ) ;
#146 = DIRECTION ( 'NONE',  ( 0.0000000000000000000, -1.000000000000000000, 0.0000000000000000000 ) ) ;
#147 = PLANE ( 'NONE',  #37 ) ;
#148 = PERSON_AND_ORGANIZATION ( #80, #170 ) ;
#149 = DIRECTION ( 'NONE',  ( -3.491481338843133355E-15, 1.224646799147353207E-16, -1.000000000000000000 ) ) ;
#150 = DIRECTION ( 'NONE',  ( 0.0000000000000000000, 0.0000000000000000000, 1.000000000000000000 ) ) ;
#151 = CARTESIAN_POINT ( 'NONE',  ( 5.036752680377432828E-14, 1.499999999999996669, 14.42583302491975950 ) ) ;
#152 = CONICAL_SURFACE ( 'NONE', #161, 1.199999999999999956, 0.7853981633974453924 ) ;
#153 = PERSON_AND_ORGANIZATION_ROLE ( 'design_supplier' ) ;
#154 = SHAPE_DEFINITION_REPRESENTATION ( #212, #88 ) ;
#155 = CC_DESIGN_DATE_AND_TIME_ASSIGNMENT ( #113, #188, ( #194 ) ) ;
#156 = SECURITY_CLASSIFICATION ( '', '', #125 ) ;
#157 = ORIENTED_EDGE ( 'NONE', *, *, #65, .T. ) ;
#158 = APPROVAL ( #100, 'UNSPECIFIED' ) ;
#159 = ORIENTED_EDGE ( 'NONE', *, *, #176, .T. ) ;
#160 = CLOSED_SHELL ( 'NONE', ( #18, #133, #131, #35, #84 ) ) ;
#161 = AXIS2_PLACEMENT_3D ( 'NONE', #202, #39, #183 ) ;
#162 = ORIENTED_EDGE ( 'NONE', *, *, #199, .F. ) ;
#163 = DIRECTION ( 'NONE',  ( -3.491481338843133355E-15, 1.229791517316362731E-16, -1.000000000000000000 ) ) ;
#164 = DIRECTION ( 'NONE',  ( 4.275831445896958607E-31, 1.000000000000000000, 1.224646799147353207E-16 ) ) ;
#165 = LOCAL_TIME ( 11, 23, 13.00000000000000000, #87 ) ;
#166 = FACE_BOUND ( 'NONE', #2, .T. ) ;
#167 = EDGE_CURVE ( 'NONE', #60, #60, #141, .T. ) ;
#168 = DIRECTION ( 'NONE',  ( 0.0000000000000000000, 1.000000000000000000, 0.0000000000000000000 ) ) ;
#169 = VERTEX_POINT ( 'NONE', #207 ) ;
#170 = ORGANIZATION ( 'UNSPECIFIED', 'UNSPECIFIED', '' ) ;
#171 = APPROVAL_ROLE ( '' ) ;
#172 = CARTESIAN_POINT ( 'NONE',  ( 1.316288464743861212E-13, 1.499999999999995337, 37.69999999999999574 ) ) ;
#173 = CALENDAR_DATE ( 2021, 28, 10 ) ;
#174 = PERSON_AND_ORGANIZATION ( #80, #170 ) ;
#175 = DATE_AND_TIME ( #173, #165 ) ;
#176 = EDGE_CURVE ( 'NONE', #169, #169, #33, .T. ) ;
#177 = APPROVAL_PERSON_ORGANIZATION ( #30, #158, #220 ) ;
#178 = APPROVAL_ROLE ( '' ) ;
#179 = ORIENTED_EDGE ( 'NONE', *, *, #122, .T. ) ;
#180 = PLANE ( 'NONE',  #190 ) ;
#181 = APPROVAL ( #142, 'UNSPECIFIED' ) ;
#182 = FACE_BOUND ( 'NONE', #5, .T. ) ;
#183 = DIRECTION ( 'NONE',  ( 0.0000000000000000000, 1.000000000000000000, 0.0000000000000000000 ) ) ;
#184 = CIRCLE ( 'NONE', #104, 1.499999999999998446 ) ;
#185 = ADVANCED_FACE ( 'NONE', ( #73 ), #144, .T. ) ;
#186 =( LENGTH_UNIT ( ) NAMED_UNIT ( * ) SI_UNIT ( .MILLI., .METRE. ) );
#187 = VERTEX_POINT ( 'NONE', #78 ) ;
#188 = DATE_TIME_ROLE ( 'creation_date' ) ;
#189 = APPLICATION_PROTOCOL_DEFINITION ( 'international standard', 'config_control_design', 1994, #77 ) ;
#190 = AXIS2_PLACEMENT_3D ( 'NONE', #109, #71, #38 ) ;
#191 = APPROVAL_DATE_TIME ( #175, #181 ) ;
#192 = EDGE_LOOP ( 'NONE', ( #139 ) ) ;
#193 = AXIS2_PLACEMENT_3D ( 'NONE', #53, #163, #6 ) ;
#194 = PRODUCT_DEFINITION ( 'UNKNOWN', '', #63, #81 ) ;
#195 = DIRECTION ( 'NONE',  ( 3.491481338843133355E-15, -1.224646799147353207E-16, 1.000000000000000000 ) ) ;
#196 = LOCAL_TIME ( 11, 23, 13.00000000000000000, #222 ) ;
#197 = DIRECTION ( 'NONE',  ( 3.491481338843133355E-15, -1.224646799147353207E-16, 1.000000000000000000 ) ) ;
#198 = DIRECTION ( 'NONE',  ( 4.275831445896958607E-31, 1.000000000000000000, 1.224646799147353207E-16 ) ) ;
#199 = EDGE_CURVE ( 'NONE', #43, #43, #79, .T. ) ;
#200 = EDGE_LOOP ( 'NONE', ( #159 ) ) ;
#201 = AXIS2_PLACEMENT_3D ( 'NONE', #22, #76, #146 ) ;
#202 = CARTESIAN_POINT ( 'NONE',  ( 1.326762908760390423E-13, -4.653657836759941941E-15, 38.00000000000000000 ) ) ;
#203 = CARTESIAN_POINT ( 'NONE',  ( 4.189777606611760026E-14, 0.8499999999999984235, 12.00000000000000000 ) ) ;
#204 = MECHANICAL_CONTEXT ( 'NONE', #86, 'mechanical' ) ;
#205 = PERSON_AND_ORGANIZATION_ROLE ( 'creator' ) ;
#206 = COORDINATED_UNIVERSAL_TIME_OFFSET ( 1, 0, .AHEAD. ) ;
#207 = CARTESIAN_POINT ( 'NONE',  ( 4.189777606611760026E-14, 0.8499999999999984235, 12.00000000000000000 ) ) ;
#208 = DATE_AND_TIME ( #64, #196 ) ;
#209 = ORIENTED_EDGE ( 'NONE', *, *, #65, .F. ) ;
#210 = AXIS2_PLACEMENT_3D ( 'NONE', #90, #213, #198 ) ;
#211 = CARTESIAN_POINT ( 'NONE',  ( 0.0000000000000000000, 0.0000000000000000000, 0.0000000000000000000 ) ) ;
#212 = PRODUCT_DEFINITION_SHAPE ( 'NONE', 'NONE',  #194 ) ;
#213 = DIRECTION ( 'NONE',  ( -3.491481338843133355E-15, 1.224646799147353207E-16, -1.000000000000000000 ) ) ;
#214 = CARTESIAN_POINT ( 'NONE',  ( 1.080175988709601708E-15, -3.788747350221692513E-17, 0.3093746991262759649 ) ) ;
#215 = DIRECTION ( 'NONE',  ( -3.491481338843133355E-15, 1.224646799147353207E-16, -1.000000000000000000 ) ) ;
#216 = CIRCLE ( 'NONE', #117, 0.8499999999999999778 ) ;
#217 = LOCAL_TIME ( 11, 23, 13.00000000000000000, #46 ) ;
#218 = CC_DESIGN_DATE_AND_TIME_ASSIGNMENT ( #208, #120, ( #156 ) ) ;
#219 = CALENDAR_DATE ( 2021, 28, 10 ) ;
#220 = APPROVAL_ROLE ( '' ) ;
#221 = VERTEX_POINT ( 'NONE', #151 ) ;
#222 = COORDINATED_UNIVERSAL_TIME_OFFSET ( 1, 0, .AHEAD. ) ;
#223 = ORIENTED_EDGE ( 'NONE', *, *, #101, .T. ) ;
ENDSEC;
END-ISO-10303-21;
